  0
SECTION
  2
HEADER
  9
$ACADVER
  1
AC1014
  9
$ACADMAINTVER
 70
     9
  9
$DWGCODEPAGE
  3
ANSI_1252
  9
$INSBASE
 10
0.0
 20
0.0
 30
0.0
  9
$EXTMIN
 10
1.000000000000000E+20
 20
1.000000000000000E+20
 30
1.000000000000000E+20
  9
$EXTMAX
 10
-1.000000000000000E+20
 20
-1.000000000000000E+20
 30
-1.000000000000000E+20
  9
$LIMMIN
 10
0.0
 20
0.0
  9
$LIMMAX
 10
420.0
 20
297.0
  9
$ORTHOMODE
 70
     0
  9
$REGENMODE
 70
     1
  9
$FILLMODE
 70
     1
  9
$QTEXTMODE
 70
     0
  9
$MIRRTEXT
 70
     1
  9
$DRAGMODE
 70
     2
  9
$LTSCALE
 40
1.0
  9
$OSMODE
 70
    37
  9
$ATTMODE
 70
     1
  9
$TEXTSIZE
 40
2.5
  9
$TRACEWID
 40
1.0
  9
$TEXTSTYLE
  7
STANDARD
  9
$CLAYER
  8
0
  9
$CELTYPE
  6
BYLAYER
  9
$CECOLOR
 62
   256
  9
$CELTSCALE
 40
1.0
  9
$DELOBJ
 70
     1
  9
$DISPSILH
 70
     0
  9
$DIMSCALE
 40
1.0
  9
$DIMASZ
 40
2.5
  9
$DIMEXO
 40
0.625
  9
$DIMDLI
 40
3.75
  9
$DIMRND
 40
0.0
  9
$DIMDLE
 40
0.0
  9
$DIMEXE
 40
1.25
  9
$DIMTP
 40
0.0
  9
$DIMTM
 40
0.0
  9
$DIMTXT
 40
2.5
  9
$DIMCEN
 40
2.5
  9
$DIMTSZ
 40
0.0
  9
$DIMTOL
 70
     0
  9
$DIMLIM
 70
     0
  9
$DIMTIH
 70
     0
  9
$DIMTOH
 70
     0
  9
$DIMSE1
 70
     0
  9
$DIMSE2
 70
     0
  9
$DIMTAD
 70
     1
  9
$DIMZIN
 70
     8
  9
$DIMBLK
  1

  9
$DIMASO
 70
     1
  9
$DIMSHO
 70
     1
  9
$DIMPOST
  1

  9
$DIMAPOST
  1

  9
$DIMALT
 70
     0
  9
$DIMALTD
 70
     3
  9
$DIMALTF
 40
0.03937007874016
  9
$DIMLFAC
 40
1.0
  9
$DIMTOFL
 70
     1
  9
$DIMTVP
 40
0.0
  9
$DIMTIX
 70
     0
  9
$DIMSOXD
 70
     0
  9
$DIMSAH
 70
     0
  9
$DIMBLK1
  1

  9
$DIMBLK2
  1

  9
$DIMSTYLE
  2
ISO-25
  9
$DIMCLRD
 70
     0
  9
$DIMCLRE
 70
     0
  9
$DIMCLRT
 70
     0
  9
$DIMTFAC
 40
1.0
  9
$DIMGAP
 40
0.625
  9
$DIMJUST
 70
     0
  9
$DIMSD1
 70
     0
  9
$DIMSD2
 70
     0
  9
$DIMTOLJ
 70
     0
  9
$DIMTZIN
 70
     8
  9
$DIMALTZ
 70
     0
  9
$DIMALTTZ
 70
     0
  9
$DIMFIT
 70
     3
  9
$DIMUPT
 70
     0
  9
$DIMUNIT
 70
     2
  9
$DIMDEC
 70
     2
  9
$DIMTDEC
 70
     2
  9
$DIMALTU
 70
     2
  9
$DIMALTTD
 70
     3
  9
$DIMTXSTY
  7
STANDARD
  9
$DIMAUNIT
 70
     0
  9
$LUNITS
 70
     2
  9
$LUPREC
 70
     4
  9
$SKETCHINC
 40
1.0
  9
$FILLETRAD
 40
0.0
  9
$AUNITS
 70
     0
  9
$AUPREC
 70
     0
  9
$MENU
  1
.
  9
$ELEVATION
 40
0.0
  9
$PELEVATION
 40
0.0
  9
$THICKNESS
 40
0.0
  9
$LIMCHECK
 70
     0
  9
$CHAMFERA
 40
0.0
  9
$CHAMFERB
 40
0.0
  9
$CHAMFERC
 40
0.0
  9
$CHAMFERD
 40
0.0
  9
$SKPOLY
 70
     0
  9
$TDCREATE
 40
2461032.052801806
  9
$TDUPDATE
 40
2461032.052801875
  9
$TDINDWG
 40
0.0000000116
  9
$TDUSRTIMER
 40
0.0000000116
  9
$USRTIMER
 70
     1
  9
$ANGBASE
 50
0.0
  9
$ANGDIR
 70
     0
  9
$PDMODE
 70
     0
  9
$PDSIZE
 40
0.0
  9
$PLINEWID
 40
0.0
  9
$COORDS
 70
     1
  9
$SPLFRAME
 70
     0
  9
$SPLINETYPE
 70
     6
  9
$SPLINESEGS
 70
     8
  9
$ATTDIA
 70
     0
  9
$ATTREQ
 70
     1
  9
$HANDLING
 70
     1
  9
$HANDSEED
  5
1000037F
  9
$SURFTAB1
 70
     6
  9
$SURFTAB2
 70
     6
  9
$SURFTYPE
 70
     6
  9
$SURFU
 70
     6
  9
$SURFV
 70
     6
  9
$UCSNAME
  2

  9
$UCSORG
 10
0.0
 20
0.0
 30
0.0
  9
$UCSXDIR
 10
1.0
 20
0.0
 30
0.0
  9
$UCSYDIR
 10
0.0
 20
1.0
 30
0.0
  9
$PUCSNAME
  2

  9
$PUCSORG
 10
0.0
 20
0.0
 30
0.0
  9
$PUCSXDIR
 10
1.0
 20
0.0
 30
0.0
  9
$PUCSYDIR
 10
0.0
 20
1.0
 30
0.0
  9
$USERI1
 70
     0
  9
$USERI2
 70
     0
  9
$USERI3
 70
     0
  9
$USERI4
 70
     0
  9
$USERI5
 70
     0
  9
$USERR1
 40
0.0
  9
$USERR2
 40
0.0
  9
$USERR3
 40
0.0
  9
$USERR4
 40
0.0
  9
$USERR5
 40
0.0
  9
$WORLDVIEW
 70
     1
  9
$SHADEDGE
 70
     3
  9
$SHADEDIF
 70
    70
  9
$TILEMODE
 70
     1
  9
$MAXACTVP
 70
    64
  9
$PINSBASE
 10
0.0
 20
0.0
 30
0.0
  9
$PLIMCHECK
 70
     0
  9
$PEXTMIN
 10
1.000000000000000E+20
 20
1.000000000000000E+20
 30
1.000000000000000E+20
  9
$PEXTMAX
 10
-1.000000000000000E+20
 20
-1.000000000000000E+20
 30
-1.000000000000000E+20
  9
$PLIMMIN
 10
0.0
 20
0.0
  9
$PLIMMAX
 10
420.0
 20
297.0
  9
$UNITMODE
 70
     0
  9
$VISRETAIN
 70
     1
  9
$PLINEGEN
 70
     0
  9
$PSLTSCALE
 70
     1
  9
$TREEDEPTH
 70
  3020
  9
$PICKSTYLE
 70
     1
  9
$CMLSTYLE
  2
STANDARD
  9
$CMLJUST
 70
     0
  9
$CMLSCALE
 40
20.0
  9
$PROXYGRAPHICS
 70
     1
  9
$MEASUREMENT
 70
     1
  0
ENDSEC
  0
SECTION
  2
CLASSES
  0
CLASS
  1
ACDBDICTIONARYWDFLT
  2
AcDbDictionaryWithDefault
  3
ObjectDBX Classes
 90
        0
280
     0
281
     0
  0
CLASS
  1
VISUALSTYLE
  2
AcDbVisualStyle
  3
ObjectDBX Classes
 90
     4095
280
     0
281
     0
  0
CLASS
  1
MATERIAL
  2
AcDbMaterial
  3
ObjectDBX Classes
 90
     1153
280
     0
281
     0
  0
CLASS
  1
SCALE
  2
AcDbScale
  3
ObjectDBX Classes
 90
     1153
280
     0
281
     0
  0
CLASS
  1
TABLESTYLE
  2
AcDbTableStyle
  3
ObjectDBX Classes
 90
     4095
280
     0
281
     0
  0
CLASS
  1
MLEADERSTYLE
  2
AcDbMLeaderStyle
  3
ACDB_MLEADERSTYLE_CLASS
 90
     4095
280
     0
281
     0
  0
CLASS
  1
SUN
  2
AcDbSun
  3
SCENEOE
 90
     1153
280
     0
281
     0
  0
CLASS
  1
SORTENTSTABLE
  2
AcDbSortentsTable
  3
ObjectDBX Classes
 90
        0
280
     0
281
     0
  0
CLASS
  1
DICTIONARYVAR
  2
AcDbDictionaryVar
  3
ObjectDBX Classes
 90
        0
280
     0
281
     0
  0
CLASS
  1
XRECORD
  2
AcDbXrecord
  3
ObjectDBX Classes
 90
        0
280
     0
281
     0
  0
CLASS
  1
LWPOLYLINE
  2
AcDbPolyline
  3
ObjectDBX Classes
 90
        0
280
     0
281
     1
  0
CLASS
  1
HATCH
  2
AcDbHatch
  3
ObjectDBX Classes
 90
        0
280
     0
281
     1
  0
CLASS
  1
ACDBPLACEHOLDER
  2
AcDbPlaceHolder
  3
ObjectDBX Classes
 90
        0
280
     0
281
     0
  0
CLASS
  1
LAYOUT
  2
AcDbLayout
  3
ObjectDBX Classes
 90
        0
280
     0
281
     0
  0
ENDSEC
  0
SECTION
  2
TABLES
  0
TABLE
  2
VPORT
  5
8
102
{ACAD_XDICTIONARY
360
10000374
102
}
330
0
100
AcDbSymbolTable
 70
     1
  0
VPORT
  5
29
330
8
100
AcDbSymbolTableRecord
100
AcDbViewportTableRecord
  2
*ACTIVE
 70
     0
 10
0.0
 20
0.0
 11
1.0
 21
1.0
 12
344.1869158878504
 22
148.5
 13
0.0
 23
0.0
 14
10.0
 24
10.0
 15
10.0
 25
10.0
 16
0.0
 26
0.0
 36
1.0
 17
0.0
 27
0.0
 37
0.0
 40
297.0
 41
1.972972972850329
 42
50.0
 43
0.0
 44
0.0
 50
0.0
 51
0.0
 71
     0
 72
   100
 73
     1
 74
     3
 75
     0
 76
     0
 77
     0
 78
     0
  0
ENDTAB
  0
TABLE
  2
LTYPE
  5
5
330
0
100
AcDbSymbolTable
 70
     7
  0
LTYPE
  5
14
330
5
100
AcDbSymbolTableRecord
100
AcDbLinetypeTableRecord
  2
BYBLOCK
 70
     0
  3

 72
    65
 73
     0
 40
0.0
  0
LTYPE
  5
15
330
5
100
AcDbSymbolTableRecord
100
AcDbLinetypeTableRecord
  2
BYLAYER
 70
     0
  3

 72
    65
 73
     0
 40
0.0
  0
LTYPE
  5
16
330
5
100
AcDbSymbolTableRecord
100
AcDbLinetypeTableRecord
  2
CONTINUOUS
 70
     0
  3
Solid line
 72
    65
 73
     0
 40
0.0
  0
LTYPE
  5
10000024
330
5
100
AcDbSymbolTableRecord
100
AcDbLinetypeTableRecord
  2
ONS_PHANTOM
 70
     0
  3
Onshape Phantom line ______ __ __ ______
 72
    65
 73
     6
 40
0.4999999999999999
 49
0.25
 74
     0
 49
-0.05
 74
     0
 49
0.05
 74
     0
 49
-0.05
 74
     0
 49
0.05
 74
     0
 49
-0.05
 74
     0
  0
LTYPE
  5
10000025
330
5
100
AcDbSymbolTableRecord
100
AcDbLinetypeTableRecord
  2
CENTER
 70
     0
  3
Center line ____ _ ____ _ ____ _
 72
    65
 73
     4
 40
0.7874015748031495
 49
0.4921259842519685
 74
     0
 49
-0.0984251968503937
 74
     0
 49
0.0984251968503937
 74
     0
 49
-0.0984251968503937
 74
     0
  0
LTYPE
  5
10000026
330
5
100
AcDbSymbolTableRecord
100
AcDbLinetypeTableRecord
  2
DASHED
 70
     0
  3
Dashed line __ __ __ __ __
 72
    65
 73
     2
 40
0.75
 49
0.5
 74
     0
 49
-0.25
 74
     0
  0
LTYPE
  5
10000027
330
5
100
AcDbSymbolTableRecord
100
AcDbLinetypeTableRecord
  2
ONS_DASHDOT
 70
     0
  3
Onshape Dashed with Dot _ . ____ . ____
 72
    65
 73
     4
 40
0.71
 49
0.5
 74
     0
 49
-0.1
 74
     0
 49
0.01
 74
     0
 49
-0.1
 74
     0
  0
LTYPE
  5
10000028
330
5
100
AcDbSymbolTableRecord
100
AcDbLinetypeTableRecord
  2
ONS_DOTTED
 70
     0
  3
Onshape Dotted line . . . . . . .
 72
    65
 73
     2
 40
0.11
 49
0.01
 74
     0
 49
-0.1
 74
     0
  0
LTYPE
  5
10000029
330
5
100
AcDbSymbolTableRecord
100
AcDbLinetypeTableRecord
  2
HIDDEN
 70
     0
  3
Hidden line ____ ____ ____ ____ 
 72
    65
 73
     2
 40
0.15
 49
0.1
 74
     0
 49
-0.05
 74
     0
  0
ENDTAB
  0
TABLE
  2
LAYER
  5
2
330
0
100
AcDbSymbolTable
 70
    48
  0
LAYER
  5
10
330
2
100
AcDbSymbolTableRecord
100
AcDbLayerTableRecord
  2
0
 70
     0
 62
     7
  6
CONTINUOUS
  0
LAYER
  5
1000002A
330
2
100
AcDbSymbolTableRecord
100
AcDbLayerTableRecord
  2
SECTION_CUTTING_LINE
 70
     0
 62
     7
  6
ONS_DASHDOT
  0
LAYER
  5
1000002B
330
2
100
AcDbSymbolTableRecord
100
AcDbLayerTableRecord
  2
DETAIL_VIEW_BORDER
 70
     0
 62
     7
  6
CONTINUOUS
  0
LAYER
  5
1000002C
330
2
100
AcDbSymbolTableRecord
100
AcDbLayerTableRecord
  2
DETAIL_VIEW_PARENT_BORDER
 70
     0
 62
     7
  6
ONS_PHANTOM
  0
LAYER
  5
1000002D
330
2
100
AcDbSymbolTableRecord
100
AcDbLayerTableRecord
  2
TEXT
 70
     0
 62
     7
  6
CONTINUOUS
  0
LAYER
  5
1000002E
330
2
100
AcDbSymbolTableRecord
100
AcDbLayerTableRecord
  2
SKETCHED_GEOMETRY
 70
     0
 62
    -7
  6
CONTINUOUS
  0
LAYER
  5
1000002F
330
2
100
AcDbSymbolTableRecord
100
AcDbLayerTableRecord
  2
VIRTUAL_SHARPS
 70
     0
 62
    -7
  6
CONTINUOUS
  0
LAYER
  5
10000030
330
2
100
AcDbSymbolTableRecord
100
AcDbLayerTableRecord
  2
CENTERLINES
 70
     0
 62
    -7
  6
CENTER
  0
LAYER
  5
10000031
330
2
100
AcDbSymbolTableRecord
100
AcDbLayerTableRecord
  2
CENTERMARKS
 70
     0
 62
    -7
  6
CONTINUOUS
  0
LAYER
  5
10000032
330
2
100
AcDbSymbolTableRecord
100
AcDbLayerTableRecord
  2
TABLES
 70
     0
 62
     7
  6
CONTINUOUS
  0
LAYER
  5
10000033
330
2
100
AcDbSymbolTableRecord
100
AcDbLayerTableRecord
  2
IMAGES
 70
     0
 62
    -7
  6
CONTINUOUS
  0
LAYER
  5
10000034
330
2
100
AcDbSymbolTableRecord
100
AcDbLayerTableRecord
  2
ANNOTATION_LINES
 70
     0
 62
    -7
  6
CONTINUOUS
  0
LAYER
  5
10000035
330
2
100
AcDbSymbolTableRecord
100
AcDbLayerTableRecord
  2
ANNOTATION_TEXT
 70
     0
 62
    -7
  6
CONTINUOUS
  0
LAYER
  5
10000036
330
2
100
AcDbSymbolTableRecord
100
AcDbLayerTableRecord
  2
SIDE_THREAD_SYMBOLS
 70
     0
 62
     7
  6
CONTINUOUS
  0
LAYER
  5
10000037
330
2
100
AcDbSymbolTableRecord
100
AcDbLayerTableRecord
  2
SIDE_THREAD_SYMBOLS_HIDDEN
 70
     0
 62
    -7
  6
HIDDEN
  0
LAYER
  5
10000038
330
2
100
AcDbSymbolTableRecord
100
AcDbLayerTableRecord
  2
SURFACE_THREAD_SYMBOLS
 70
     0
 62
     7
  6
CONTINUOUS
  0
LAYER
  5
10000039
330
2
100
AcDbSymbolTableRecord
100
AcDbLayerTableRecord
  2
SURFACE_THREAD_SYMBOLS_ON_
 70
     0
 62
     7
  6
CONTINUOUS
  0
LAYER
  5
1000003A
330
2
100
AcDbSymbolTableRecord
100
AcDbLayerTableRecord
  2
SURFACE_THREAD_SYMBOLS_HID
 70
     0
 62
    -7
  6
HIDDEN
  0
LAYER
  5
1000003B
330
2
100
AcDbSymbolTableRecord
100
AcDbLayerTableRecord
  2
BLIND_THREAD_SYMBOLS
 70
     0
 62
     7
  6
CONTINUOUS
  0
LAYER
  5
1000003C
330
2
100
AcDbSymbolTableRecord
100
AcDbLayerTableRecord
  2
BLIND_THREAD_SYMBOLS_HIDDE
 70
     0
 62
    -7
  6
HIDDEN
  0
LAYER
  5
1000003D
330
2
100
AcDbSymbolTableRecord
100
AcDbLayerTableRecord
  2
EXPLODE_LINES
 70
     0
 62
     7
  6
ONS_PHANTOM
  0
LAYER
  5
1000003E
330
2
100
AcDbSymbolTableRecord
100
AcDbLayerTableRecord
  2
HIDDEN_EXPLODE_LINES
 70
     0
 62
    -7
  6
ONS_PHANTOM
  0
LAYER
  5
1000003F
330
2
100
AcDbSymbolTableRecord
100
AcDbLayerTableRecord
  2
BREAK_LINES
 70
     0
 62
    -7
  6
CONTINUOUS
  0
LAYER
  5
10000040
330
2
100
AcDbSymbolTableRecord
100
AcDbLayerTableRecord
  2
SHEETMETAL_BEND_LINES_UP
 70
     0
 62
     7
  6
CENTER
  0
LAYER
  5
10000041
330
2
100
AcDbSymbolTableRecord
100
AcDbLayerTableRecord
  2
SHEETMETAL_BEND_LINES_DOWN
 70
     0
 62
     7
  6
CENTER
  0
LAYER
  5
10000042
330
2
100
AcDbSymbolTableRecord
100
AcDbLayerTableRecord
  2
SHEETMETAL_BEND_TANGENT_LI
 70
     0
 62
     7
  6
CONTINUOUS
  0
LAYER
  5
10000043
330
2
100
AcDbSymbolTableRecord
100
AcDbLayerTableRecord
  2
SHEETMETAL_CUT_LINES
 70
     0
 62
     7
  6
CONTINUOUS
  0
LAYER
  5
10000044
330
2
100
AcDbSymbolTableRecord
100
AcDbLayerTableRecord
  2
SHEETMETAL_CBORE_CSINK_UP
 70
     0
 62
     7
  6
CONTINUOUS
  0
LAYER
  5
10000045
330
2
100
AcDbSymbolTableRecord
100
AcDbLayerTableRecord
  2
SHEETMETAL_CBORE_CSINK_DOW
 70
     0
 62
     7
  6
CONTINUOUS
  0
LAYER
  5
10000046
330
2
100
AcDbSymbolTableRecord
100
AcDbLayerTableRecord
  2
SHEETMETAL_CBORE_CSINK_UP_
 70
     0
 62
    -7
  6
HIDDEN
  0
LAYER
  5
10000047
330
2
100
AcDbSymbolTableRecord
100
AcDbLayerTableRecord
  2
SHEETMETAL_CBORE_CSINK_DO0
 70
     0
 62
    -7
  6
HIDDEN
  0
LAYER
  5
10000048
330
2
100
AcDbSymbolTableRecord
100
AcDbLayerTableRecord
  2
SHEETMETAL_FORM_TEAR
 70
     0
 62
     7
  6
CONTINUOUS
  0
LAYER
  5
10000049
330
2
100
AcDbSymbolTableRecord
100
AcDbLayerTableRecord
  2
SHEETMETAL_FORM_UP
 70
     0
 62
     7
  6
CENTER
  0
LAYER
  5
1000004A
330
2
100
AcDbSymbolTableRecord
100
AcDbLayerTableRecord
  2
SHEETMETAL_FORM_DOWN
 70
     0
 62
     7
  6
CENTER
  0
LAYER
  5
1000004B
330
2
100
AcDbSymbolTableRecord
100
AcDbLayerTableRecord
  2
SHEETMETAL_FORM_CENTERMARK
 70
     0
 62
     7
  6
CENTER
  0
LAYER
  5
1000004C
330
2
100
AcDbSymbolTableRecord
100
AcDbLayerTableRecord
  2
REGION_ASSOC_POINTS
 70
     0
 62
    -7
  6
CONTINUOUS
  0
LAYER
  5
1000004D
330
2
100
AcDbSymbolTableRecord
100
AcDbLayerTableRecord
  2
PATTERN_CENTERLINES
 70
     1
 62
    -7
  6
CENTER
  0
LAYER
  5
1000004E
330
2
100
AcDbSymbolTableRecord
100
AcDbLayerTableRecord
  2
HIDDEN
 70
     0
 62
    -7
  6
HIDDEN
  0
LAYER
  5
1000004F
330
2
100
AcDbSymbolTableRecord
100
AcDbLayerTableRecord
  2
VISIBLE
 70
     0
 62
     7
  6
CONTINUOUS
  0
LAYER
  5
10000050
330
2
100
AcDbSymbolTableRecord
100
AcDbLayerTableRecord
  2
MODELSKETCH_VISIBLE
 70
     0
 62
     7
  6
CONTINUOUS
  0
LAYER
  5
10000051
330
2
100
AcDbSymbolTableRecord
100
AcDbLayerTableRecord
  2
MODELSKETCH_POINT
 70
     0
 62
     7
  6
CONTINUOUS
  0
LAYER
  5
10000052
330
2
100
AcDbSymbolTableRecord
100
AcDbLayerTableRecord
  2
MODELSKETCH_CONSTRUCTION
 70
     0
 62
    -7
  6
CENTER
  0
LAYER
  5
10000053
330
2
100
AcDbSymbolTableRecord
100
AcDbLayerTableRecord
  2
HIDDEN_BASE_VIEW
 70
     0
 62
     7
  6
CONTINUOUS
  0
LAYER
  5
10000054
330
2
100
AcDbSymbolTableRecord
100
AcDbLayerTableRecord
  2
TANGENT_LINES
 70
     0
 62
    -7
  6
CONTINUOUS
  0
LAYER
  5
10000055
330
2
100
AcDbSymbolTableRecord
100
AcDbLayerTableRecord
  2
TANGENT_HIDDEN
 70
     0
 62
    -7
  6
HIDDEN
  0
LAYER
  5
10000056
330
2
100
AcDbSymbolTableRecord
100
AcDbLayerTableRecord
  2
INVISIBLE_LINES
 70
     0
 62
    -7
  6
CONTINUOUS
  0
LAYER
  5
10000057
330
2
100
AcDbSymbolTableRecord
100
AcDbLayerTableRecord
  2
VIEW_HATCHES
 70
     0
 62
    -7
  6
CONTINUOUS
  0
LAYER
  5
10000058
330
2
100
AcDbSymbolTableRecord
100
AcDbLayerTableRecord
  2
SECTION_JOG_LINES
 70
     0
 62
    -7
  6
CONTINUOUS
  0
ENDTAB
  0
TABLE
  2
STYLE
  5
3
330
0
100
AcDbSymbolTable
 70
     2
  0
STYLE
  5
11
330
3
100
AcDbSymbolTableRecord
100
AcDbTextStyleTableRecord
  2
STANDARD
 70
     0
 40
0.0
 41
1.0
 50
0.0
 71
     0
 42
2.5
  3
txt
  4

  0
STYLE
  5
10000004
330
3
100
AcDbSymbolTableRecord
100
AcDbTextStyleTableRecord
  2
TTFSTYLE
 70
     0
 40
0.0
 41
1.0
 50
0.0
 71
     0
 42
2.5
  3

  4

1001
ACAD
1000
Verdana
1071
       34
  0
ENDTAB
  0
TABLE
  2
VIEW
  5
6
330
0
100
AcDbSymbolTable
 70
     0
  0
ENDTAB
  0
TABLE
  2
UCS
  5
7
330
0
100
AcDbSymbolTable
 70
     0
  0
ENDTAB
  0
TABLE
  2
APPID
  5
9
330
0
100
AcDbSymbolTable
 70
     2
  0
APPID
  5
12
330
9
100
AcDbSymbolTableRecord
100
AcDbRegAppTableRecord
  2
ACAD
 70
     0
  0
APPID
  5
1000037E
330
9
100
AcDbSymbolTableRecord
100
AcDbRegAppTableRecord
  2
ACAD_MLEADERVER
 70
     0
  0
ENDTAB
  0
TABLE
  2
DIMSTYLE
  5
A
330
0
100
AcDbSymbolTable
 70
     1
  0
DIMSTYLE
105
27
330
A
100
AcDbSymbolTableRecord
100
AcDbDimStyleTableRecord
  2
ISO-25
 70
     0
  3

  4

  5

  6

  7

 40
1.0
 41
2.5
 42
0.625
 43
3.75
 44
1.25
 45
0.0
 46
0.0
 47
0.0
 48
0.0
140
2.5
141
2.5
142
0.0
143
0.03937007874016
144
1.0
145
0.0
146
1.0
147
0.625
 71
     0
 72
     0
 73
     0
 74
     0
 75
     0
 76
     0
 77
     1
 78
     8
170
     0
171
     3
172
     1
173
     0
174
     0
175
     0
176
     0
177
     0
178
     0
270
     2
271
     2
272
     2
273
     2
274
     3
340
11
275
     0
280
     0
281
     0
282
     0
283
     0
284
     8
285
     0
286
     0
287
     3
288
     0
  0
ENDTAB
  0
TABLE
  2
BLOCK_RECORD
  5
1
330
0
100
AcDbSymbolTable
 70
     0
  0
BLOCK_RECORD
  5
1F
102
{ACAD_XDICTIONARY
360
10000345
102
}
330
1
100
AcDbSymbolTableRecord
100
AcDbBlockTableRecord
  2
*MODEL_SPACE
  0
BLOCK_RECORD
  5
1B
330
1
100
AcDbSymbolTableRecord
100
AcDbBlockTableRecord
  2
*PAPER_SPACE
  0
ENDTAB
  0
ENDSEC
  0
SECTION
  2
BLOCKS
  0
BLOCK
  5
20
330
1F
100
AcDbEntity
  8
0
100
AcDbBlockBegin
  2
*MODEL_SPACE
 70
     0
 10
0.0
 20
0.0
 30
0.0
  3
*MODEL_SPACE
  1

  0
ENDBLK
  5
21
330
1F
100
AcDbEntity
  8
0
100
AcDbBlockEnd
  0
BLOCK
  5
1C
330
1B
100
AcDbEntity
 67
     1
  8
0
100
AcDbBlockBegin
  2
*PAPER_SPACE
 70
     0
 10
0.0
 20
0.0
 30
0.0
  3
*PAPER_SPACE
  1

  0
ENDBLK
  5
1D
330
1B
100
AcDbEntity
 67
     1
  8
0
100
AcDbBlockEnd
  0
ENDSEC
  0
SECTION
  2
ENTITIES
  0
LINE
  5
10000059
102
{ACAD_XDICTIONARY
360
1000005A
102
}
330
1F
100
AcDbEntity
  8
VISIBLE
100
AcDbLine
 10
-176.669
 20
2.49999999999983
 30
0.0
 11
-176.669
 21
-2.50000000000017
 31
0.0
  0
LINE
  5
1000005D
102
{ACAD_XDICTIONARY
360
1000005E
102
}
330
1F
100
AcDbEntity
  8
VISIBLE
100
AcDbLine
 10
-176.669
 20
-2.500000000000165
 30
0.0
 11
-216.669
 21
-2.500000000000175
 31
0.0
  0
LINE
  5
10000061
102
{ACAD_XDICTIONARY
360
10000062
102
}
330
1F
100
AcDbEntity
  8
VISIBLE
100
AcDbLine
 10
-216.669
 20
-2.50000000000017
 30
0.0
 11
-216.669
 21
2.49999999999983
 31
0.0
  0
LINE
  5
10000065
102
{ACAD_XDICTIONARY
360
10000066
102
}
330
1F
100
AcDbEntity
  8
VISIBLE
100
AcDbLine
 10
-216.669
 20
2.49999999999982
 30
0.0
 11
-176.669
 21
2.49999999999983
 31
0.0
  0
LINE
  5
10000069
102
{ACAD_XDICTIONARY
360
1000006A
102
}
330
1F
100
AcDbEntity
  8
VISIBLE
100
AcDbLine
 10
90.49956350946101
 20
151.749842061193
 30
0.0
 11
86.16943649053889
 21
154.249842061193
 31
0.0
  0
LINE
  5
1000006D
102
{ACAD_XDICTIONARY
360
1000006E
102
}
330
1F
100
AcDbEntity
  8
VISIBLE
100
AcDbLine
 10
86.1694364905387
 20
154.249842061193
 30
0.0
 11
106.169436490539
 21
188.890858212571
 31
0.0
  0
LINE
  5
10000071
102
{ACAD_XDICTIONARY
360
10000072
102
}
330
1F
100
AcDbEntity
  8
VISIBLE
100
AcDbLine
 10
106.169436490539
 20
188.890858212571
 30
0.0
 11
110.499563509461
 21
186.390858212571
 31
0.0
  0
LINE
  5
10000075
102
{ACAD_XDICTIONARY
360
10000076
102
}
330
1F
100
AcDbEntity
  8
VISIBLE
100
AcDbLine
 10
110.4995635094612
 20
186.390858212571
 30
0.0
 11
90.49956350946101
 21
151.749842061193
 31
0.0
  0
LINE
  5
10000079
102
{ACAD_XDICTIONARY
360
1000007A
102
}
330
1F
100
AcDbEntity
  8
VISIBLE
100
AcDbLine
 10
86.1694364905391
 20
-154.249842061193
 30
0.0
 11
90.49956350946131
 21
-151.749842061193
 31
0.0
  0
LINE
  5
1000007D
102
{ACAD_XDICTIONARY
360
1000007E
102
}
330
1F
100
AcDbEntity
  8
VISIBLE
100
AcDbLine
 10
90.49956350946131
 20
-151.749842061193
 30
0.0
 11
110.499563509461
 21
-186.39085821257
 31
0.0
  0
LINE
  5
10000081
102
{ACAD_XDICTIONARY
360
10000082
102
}
330
1F
100
AcDbEntity
  8
VISIBLE
100
AcDbLine
 10
110.499563509461
 20
-186.39085821257
 30
0.0
 11
106.169436490539
 21
-188.89085821257
 31
0.0
  0
LINE
  5
10000085
102
{ACAD_XDICTIONARY
360
10000086
102
}
330
1F
100
AcDbEntity
  8
VISIBLE
100
AcDbLine
 10
106.169436490539
 20
-188.89085821257
 30
0.0
 11
86.1694364905391
 21
-154.249842061193
 31
0.0
  0
LINE
  5
10000089
102
{ACAD_XDICTIONARY
360
1000008A
102
}
330
1F
100
AcDbEntity
  8
VISIBLE
100
AcDbLine
 10
-154.249842061193
 20
-86.1694364905391
 30
0.0
 11
-151.749842061193
 21
-90.49956350946131
 31
0.0
  0
LINE
  5
1000008D
102
{ACAD_XDICTIONARY
360
1000008E
102
}
330
1F
100
AcDbEntity
  8
VISIBLE
100
AcDbLine
 10
-151.749842061193
 20
-90.49956350946131
 30
0.0
 11
-186.39085821257
 21
-110.499563509461
 31
0.0
  0
LINE
  5
10000091
102
{ACAD_XDICTIONARY
360
10000092
102
}
330
1F
100
AcDbEntity
  8
VISIBLE
100
AcDbLine
 10
-186.39085821257
 20
-110.499563509461
 30
0.0
 11
-188.89085821257
 21
-106.169436490539
 31
0.0
  0
LINE
  5
10000095
102
{ACAD_XDICTIONARY
360
10000096
102
}
330
1F
100
AcDbEntity
  8
VISIBLE
100
AcDbLine
 10
-188.89085821257
 20
-106.169436490539
 30
0.0
 11
-154.249842061193
 21
-86.1694364905391
 31
0.0
  0
LINE
  5
10000099
102
{ACAD_XDICTIONARY
360
1000009A
102
}
330
1F
100
AcDbEntity
  8
VISIBLE
100
AcDbLine
 10
151.749842061193
 20
-90.49956350946101
 30
0.0
 11
154.249842061193
 21
-86.16943649053879
 31
0.0
  0
LINE
  5
1000009D
102
{ACAD_XDICTIONARY
360
1000009E
102
}
330
1F
100
AcDbEntity
  8
VISIBLE
100
AcDbLine
 10
154.249842061193
 20
-86.16943649053879
 30
0.0
 11
188.890858212571
 21
-106.169436490539
 31
0.0
  0
LINE
  5
100000A1
102
{ACAD_XDICTIONARY
360
100000A2
102
}
330
1F
100
AcDbEntity
  8
VISIBLE
100
AcDbLine
 10
188.890858212571
 20
-106.169436490539
 30
0.0
 11
186.390858212571
 21
-110.499563509461
 31
0.0
  0
LINE
  5
100000A5
102
{ACAD_XDICTIONARY
360
100000A6
102
}
330
1F
100
AcDbEntity
  8
VISIBLE
100
AcDbLine
 10
186.390858212571
 20
-110.499563509461
 30
0.0
 11
151.749842061193
 21
-90.49956350946101
 31
0.0
  0
LINE
  5
100000A9
102
{ACAD_XDICTIONARY
360
100000AA
102
}
330
1F
100
AcDbEntity
  8
VISIBLE
100
AcDbLine
 10
2.49999999999987
 20
216.669
 30
0.0
 11
2.49999999999987
 21
176.669
 31
0.0
  0
LINE
  5
100000AD
102
{ACAD_XDICTIONARY
360
100000AE
102
}
330
1F
100
AcDbEntity
  8
VISIBLE
100
AcDbLine
 10
2.49999999999987
 20
176.669
 30
0.0
 11
-2.50000000000013
 21
176.669
 31
0.0
  0
LINE
  5
100000B1
102
{ACAD_XDICTIONARY
360
100000B2
102
}
330
1F
100
AcDbEntity
  8
VISIBLE
100
AcDbLine
 10
-2.50000000000013
 20
176.669
 30
0.0
 11
-2.50000000000013
 21
216.669
 31
0.0
  0
LINE
  5
100000B5
102
{ACAD_XDICTIONARY
360
100000B6
102
}
330
1F
100
AcDbEntity
  8
VISIBLE
100
AcDbLine
 10
-2.50000000000013
 20
216.669
 30
0.0
 11
2.49999999999987
 21
216.669
 31
0.0
  0
LINE
  5
100000B9
102
{ACAD_XDICTIONARY
360
100000BA
102
}
330
1F
100
AcDbEntity
  8
VISIBLE
100
AcDbLine
 10
-151.749842061193
 20
90.49956350946091
 30
0.0
 11
-154.249842061193
 21
86.1694364905386
 31
0.0
  0
LINE
  5
100000BD
102
{ACAD_XDICTIONARY
360
100000BE
102
}
330
1F
100
AcDbEntity
  8
VISIBLE
100
AcDbLine
 10
-154.249842061193
 20
86.1694364905386
 30
0.0
 11
-188.890858212571
 21
106.1694364905388
 31
0.0
  0
LINE
  5
100000C1
102
{ACAD_XDICTIONARY
360
100000C2
102
}
330
1F
100
AcDbEntity
  8
VISIBLE
100
AcDbLine
 10
-188.8908582125705
 20
106.1694364905388
 30
0.0
 11
-186.390858212571
 21
110.499563509461
 31
0.0
  0
LINE
  5
100000C5
102
{ACAD_XDICTIONARY
360
100000C6
102
}
330
1F
100
AcDbEntity
  8
VISIBLE
100
AcDbLine
 10
-186.390858212571
 20
110.499563509461
 30
0.0
 11
-151.749842061193
 21
90.4995635094608
 31
0.0
  0
LINE
  5
100000C9
102
{ACAD_XDICTIONARY
360
100000CA
102
}
330
1F
100
AcDbEntity
  8
VISIBLE
100
AcDbLine
 10
154.249842061193
 20
86.1694364905391
 30
0.0
 11
151.749842061193
 21
90.4995635094612
 31
0.0
  0
LINE
  5
100000CD
102
{ACAD_XDICTIONARY
360
100000CE
102
}
330
1F
100
AcDbEntity
  8
VISIBLE
100
AcDbLine
 10
151.749842061193
 20
90.4995635094612
 30
0.0
 11
186.39085821257
 21
110.499563509461
 31
0.0
  0
LINE
  5
100000D1
102
{ACAD_XDICTIONARY
360
100000D2
102
}
330
1F
100
AcDbEntity
  8
VISIBLE
100
AcDbLine
 10
186.3908582125705
 20
110.4995635094612
 30
0.0
 11
188.89085821257
 21
106.169436490539
 31
0.0
  0
LINE
  5
100000D5
102
{ACAD_XDICTIONARY
360
100000D6
102
}
330
1F
100
AcDbEntity
  8
VISIBLE
100
AcDbLine
 10
188.89085821257
 20
106.169436490539
 30
0.0
 11
154.249842061193
 21
86.1694364905392
 31
0.0
  0
LINE
  5
100000D9
102
{ACAD_XDICTIONARY
360
100000DA
102
}
330
1F
100
AcDbEntity
  8
VISIBLE
100
AcDbLine
 10
-2.49999999999985
 20
-176.669
 30
0.0
 11
2.50000000000015
 21
-176.669
 31
0.0
  0
LINE
  5
100000DD
102
{ACAD_XDICTIONARY
360
100000DE
102
}
330
1F
100
AcDbEntity
  8
VISIBLE
100
AcDbLine
 10
2.50000000000015
 20
-176.669
 30
0.0
 11
2.50000000000015
 21
-216.669
 31
0.0
  0
LINE
  5
100000E1
102
{ACAD_XDICTIONARY
360
100000E2
102
}
330
1F
100
AcDbEntity
  8
VISIBLE
100
AcDbLine
 10
2.50000000000015
 20
-216.669
 30
0.0
 11
-2.49999999999985
 21
-216.669
 31
0.0
  0
LINE
  5
100000E5
102
{ACAD_XDICTIONARY
360
100000E6
102
}
330
1F
100
AcDbEntity
  8
VISIBLE
100
AcDbLine
 10
-2.49999999999985
 20
-216.669
 30
0.0
 11
-2.49999999999985
 21
-176.669
 31
0.0
  0
LINE
  5
100000E9
102
{ACAD_XDICTIONARY
360
100000EA
102
}
330
1F
100
AcDbEntity
  8
VISIBLE
100
AcDbLine
 10
-90.49956350946101
 20
-151.749842061193
 30
0.0
 11
-86.16943649053879
 21
-154.249842061193
 31
0.0
  0
LINE
  5
100000ED
102
{ACAD_XDICTIONARY
360
100000EE
102
}
330
1F
100
AcDbEntity
  8
VISIBLE
100
AcDbLine
 10
-86.16943649053879
 20
-154.249842061193
 30
0.0
 11
-106.169436490539
 21
-188.890858212571
 31
0.0
  0
LINE
  5
100000F1
102
{ACAD_XDICTIONARY
360
100000F2
102
}
330
1F
100
AcDbEntity
  8
VISIBLE
100
AcDbLine
 10
-106.169436490539
 20
-188.890858212571
 30
0.0
 11
-110.499563509461
 21
-186.390858212571
 31
0.0
  0
LINE
  5
100000F5
102
{ACAD_XDICTIONARY
360
100000F6
102
}
330
1F
100
AcDbEntity
  8
VISIBLE
100
AcDbLine
 10
-110.499563509461
 20
-186.390858212571
 30
0.0
 11
-90.49956350946101
 21
-151.749842061193
 31
0.0
  0
LINE
  5
100000F9
102
{ACAD_XDICTIONARY
360
100000FA
102
}
330
1F
100
AcDbEntity
  8
VISIBLE
100
AcDbLine
 10
176.669
 20
-2.49999999999991
 30
0.0
 11
176.669
 21
2.50000000000009
 31
0.0
  0
LINE
  5
100000FD
102
{ACAD_XDICTIONARY
360
100000FE
102
}
330
1F
100
AcDbEntity
  8
VISIBLE
100
AcDbLine
 10
176.669
 20
2.50000000000009
 30
0.0
 11
216.669
 21
2.50000000000008
 31
0.0
  0
LINE
  5
10000101
102
{ACAD_XDICTIONARY
360
10000102
102
}
330
1F
100
AcDbEntity
  8
VISIBLE
100
AcDbLine
 10
216.669
 20
2.50000000000008
 30
0.0
 11
216.669
 21
-2.49999999999992
 31
0.0
  0
LINE
  5
10000105
102
{ACAD_XDICTIONARY
360
10000106
102
}
330
1F
100
AcDbEntity
  8
VISIBLE
100
AcDbLine
 10
216.669
 20
-2.49999999999992
 30
0.0
 11
176.669
 21
-2.49999999999991
 31
0.0
  0
LINE
  5
10000109
102
{ACAD_XDICTIONARY
360
1000010A
102
}
330
1F
100
AcDbEntity
  8
VISIBLE
100
AcDbLine
 10
-86.1694364905392
 20
154.249842061193
 30
0.0
 11
-90.49956350946131
 21
151.749842061193
 31
0.0
  0
LINE
  5
1000010D
102
{ACAD_XDICTIONARY
360
1000010E
102
}
330
1F
100
AcDbEntity
  8
VISIBLE
100
AcDbLine
 10
-90.49956350946131
 20
151.749842061193
 30
0.0
 11
-110.499563509461
 21
186.39085821257
 31
0.0
  0
LINE
  5
10000111
102
{ACAD_XDICTIONARY
360
10000112
102
}
330
1F
100
AcDbEntity
  8
VISIBLE
100
AcDbLine
 10
-110.4995635094612
 20
186.3908582125705
 30
0.0
 11
-106.169436490539
 21
188.89085821257
 31
0.0
  0
LINE
  5
10000115
102
{ACAD_XDICTIONARY
360
10000116
102
}
330
1F
100
AcDbEntity
  8
VISIBLE
100
AcDbLine
 10
-106.169436490539
 20
188.89085821257
 30
0.0
 11
-86.1694364905392
 21
154.249842061193
 31
0.0
  0
CIRCLE
  5
10000119
102
{ACAD_XDICTIONARY
360
1000011A
102
}
330
1F
100
AcDbEntity
  8
VISIBLE
100
AcDbCircle
 10
49.78579228463949
 20
-34.4271324610544
 30
0.0
 40
2.5
  0
CIRCLE
  5
1000011F
102
{ACAD_XDICTIONARY
360
10000120
102
}
330
1F
100
AcDbEntity
  8
VISIBLE
100
AcDbCircle
 10
74.61416164501502
 20
37.4825319790792
 30
0.0
 40
2.5
  0
CIRCLE
  5
10000125
102
{ACAD_XDICTIONARY
360
10000126
102
}
330
1F
100
AcDbEntity
  8
VISIBLE
100
AcDbCircle
 10
-18.8609894217093
 20
91.9389362017869
 30
0.0
 40
2.5
  0
CIRCLE
  5
1000012B
102
{ACAD_XDICTIONARY
360
1000012C
102
}
330
1F
100
AcDbEntity
  8
VISIBLE
100
AcDbCircle
 10
-76.48051821290889
 20
67.11880236207331
 30
0.0
 40
2.5
  0
ARC
  5
10000131
102
{ACAD_XDICTIONARY
360
10000132
102
}
330
1F
100
AcDbEntity
  8
VISIBLE
100
AcDbCircle
 10
0.0
 20
-112.000002041459
 30
0.0
 40
11.0
100
AcDbArc
 50
291.3236865967777
 51
248.6763134032222
  0
LINE
  5
10000137
102
{ACAD_XDICTIONARY
360
10000138
102
}
330
1F
100
AcDbEntity
  8
VISIBLE
100
AcDbLine
 10
4.000000059604639
 20
-122.246952784151
 30
0.0
 11
4.000000059604639
 21
-127.000002264977
 31
0.0
  0
ARC
  5
1000013B
102
{ACAD_XDICTIONARY
360
1000013C
102
}
330
1F
100
AcDbEntity
  8
VISIBLE
100
AcDbCircle
 10
0.0
 20
-127.000002264977
 30
0.0
 40
4.000000059604639
100
AcDbArc
 50
180.0
 51
0.0
  0
LINE
  5
10000141
102
{ACAD_XDICTIONARY
360
10000142
102
}
330
1F
100
AcDbEntity
  8
VISIBLE
100
AcDbLine
 10
-4.000000059604639
 20
-127.000002264977
 30
0.0
 11
-4.000000059604639
 21
-122.246952784151
 31
0.0
  0
LINE
  5
10000145
102
{ACAD_XDICTIONARY
360
10000146
102
}
330
1F
100
AcDbEntity
  8
VISIBLE
100
AcDbLine
 10
39.9999989701642
 20
-60.0
 30
0.0
 11
-110.000001029836
 21
-60.0
 31
0.0
  0
LINE
  5
10000149
102
{ACAD_XDICTIONARY
360
1000014A
102
}
330
1F
100
AcDbEntity
  8
VISIBLE
100
AcDbLine
 10
-110.000001029836
 20
-60.0
 30
0.0
 11
-110.000001029836
 21
40.0
 31
0.0
  0
LINE
  5
1000014D
102
{ACAD_XDICTIONARY
360
1000014E
102
}
330
1F
100
AcDbEntity
  8
VISIBLE
100
AcDbLine
 10
-110.000001029836
 20
40.0
 30
0.0
 11
-65.0000010298358
 21
40.00000030216245
 31
0.0
  0
LINE
  5
10000151
102
{ACAD_XDICTIONARY
360
10000152
102
}
330
1F
100
AcDbEntity
  8
VISIBLE
100
AcDbLine
 10
-65.0000010298358
 20
40.00000030216245
 30
0.0
 11
-65.0000010298358
 21
60.0000009064873
 31
0.0
  0
LINE
  5
10000155
102
{ACAD_XDICTIONARY
360
10000156
102
}
330
1F
100
AcDbEntity
  8
VISIBLE
100
AcDbLine
 10
-65.0000010298358
 20
60.0000009064873
 30
0.0
 11
-15.0000010298358
 21
60.0000009064873
 31
0.0
  0
LINE
  5
10000159
102
{ACAD_XDICTIONARY
360
1000015A
102
}
330
1F
100
AcDbEntity
  8
VISIBLE
100
AcDbLine
 10
-15.0000010298358
 20
60.0000009064873
 30
0.0
 11
-15.0000010298358
 21
40.00000060432485
 31
0.0
  0
LINE
  5
1000015D
102
{ACAD_XDICTIONARY
360
1000015E
102
}
330
1F
100
AcDbEntity
  8
VISIBLE
100
AcDbLine
 10
-15.0000010298358
 20
40.0
 30
0.0
 11
39.9999989701642
 21
40.0
 31
0.0
  0
LINE
  5
10000161
102
{ACAD_XDICTIONARY
360
10000162
102
}
330
1F
100
AcDbEntity
  8
VISIBLE
100
AcDbLine
 10
39.9999989701642
 20
40.0
 30
0.0
 11
39.9999989701642
 21
-60.0
 31
0.0
  0
LINE
  5
10000165
102
{ACAD_XDICTIONARY
360
10000166
102
}
330
1F
100
AcDbEntity
  8
VISIBLE
100
AcDbLine
 10
151.520886938287
 20
60.13079998497359
 30
0.0
 11
174.68866237652
 21
69.3265674122448
 31
0.0
  0
SPLINE
  5
10000169
102
{ACAD_XDICTIONARY
360
1000016A
102
}
330
1F
100
AcDbEntity
  8
VISIBLE
100
AcDbSpline
210
0.0
220
0.0
230
1.0
 70
    12
 71
     5
 72
    81
 73
    75
 74
     0
 42
0.0000000001
 43
0.00000001
 40
0.0
 40
0.0
 40
0.0
 40
0.0
 40
0.0
 40
0.0
 40
0.0142857142857143
 40
0.0285714285714286
 40
0.0428571428571429
 40
0.0571428571428571
 40
0.0714285714285714
 40
0.0857142857142857
 40
0.1
 40
0.114285714285714
 40
0.128571428571429
 40
0.142857142857143
 40
0.157142857142857
 40
0.171428571428571
 40
0.185714285714286
 40
0.2
 40
0.214285714285714
 40
0.228571428571429
 40
0.242857142857143
 40
0.257142857142857
 40
0.271428571428571
 40
0.285714285714286
 40
0.3
 40
0.314285714285714
 40
0.328571428571429
 40
0.342857142857143
 40
0.357142857142857
 40
0.371428571428571
 40
0.385714285714286
 40
0.4
 40
0.414285714285714
 40
0.428571428571429
 40
0.442857142857143
 40
0.457142857142857
 40
0.471428571428572
 40
0.485714285714286
 40
0.5
 40
0.514285714285714
 40
0.528571428571429
 40
0.542857142857143
 40
0.5571428571428569
 40
0.571428571428571
 40
0.585714285714286
 40
0.6
 40
0.614285714285714
 40
0.628571428571428
 40
0.642857142857142
 40
0.6571428571428569
 40
0.6714285714285709
 40
0.6857142857142849
 40
0.7
 40
0.714285714285714
 40
0.728571428571428
 40
0.742857142857142
 40
0.7571428571428559
 40
0.7714285714285709
 40
0.7857142857142849
 40
0.8
 40
0.8142857142857131
 40
0.8285714285714281
 40
0.842857142857142
 40
0.857142857142856
 40
0.87142857142857
 40
0.885714285714284
 40
0.9
 40
0.914285714285713
 40
0.928571428571427
 40
0.9428571428571411
 40
0.957142857142856
 40
0.97142857142857
 40
0.985714285714284
 40
1.0
 40
1.0
 40
1.0
 40
1.0
 40
1.0
 40
1.0
 10
174.68866237652
 20
69.326567412245
 30
0.0
 41
1.0
 10
174.816657386031
 20
69.37737126876779
 30
0.0
 41
1.0
 10
175.070683789204
 20
69.48299007082129
 30
0.0
 41
1.0
 10
175.445832697714
 20
69.653451237047
 30
0.0
 41
1.0
 10
175.934858552204
 20
69.90355812072869
 30
0.0
 41
1.0
 10
176.531024870733
 20
70.24707406780401
 30
0.0
 41
1.0
 10
177.116468815034
 20
70.6124685194066
 30
0.0
 41
1.0
 10
177.695447977381
 20
70.9909666438704
 30
0.0
 41
1.0
 10
178.270901333156
 20
71.37641293445989
 30
0.0
 41
1.0
 10
178.84373342042
 20
71.76672426623841
 30
0.0
 41
1.0
 10
179.413583916582
 20
72.16235947936781
 30
0.0
 41
1.0
 10
179.979367130727
 20
72.56525189612499
 30
0.0
 41
1.0
 10
180.539855536996
 20
72.97765141435669
 30
0.0
 41
1.0
 10
181.09435343845
 20
73.4007904904265
 30
0.0
 41
1.0
 10
181.642926036994
 20
73.8344260818275
 30
0.0
 41
1.0
 10
182.186058424239
 20
74.2775060631483
 30
0.0
 41
1.0
 10
182.72445274371
 20
74.7285628729243
 30
0.0
 41
1.0
 10
183.258789585448
 20
75.186178296567
 30
0.0
 41
1.0
 10
183.789455000558
 20
75.6495146912442
 30
0.0
 41
1.0
 10
184.316517184269
 20
76.118359750271
 30
0.0
 41
1.0
 10
184.83986340519
 20
76.5928587764579
 30
0.0
 41
1.0
 10
185.35929069309
 20
77.073337149618
 30
0.0
 41
1.0
 10
185.874608266841
 20
77.5600999310746
 30
0.0
 41
1.0
 10
186.385753573425
 20
78.0532048718751
 30
0.0
 41
1.0
 10
186.892782642611
 20
78.55248092740449
 30
0.0
 41
1.0
 10
187.395817579925
 20
79.05763049784169
 30
0.0
 41
1.0
 10
187.895007582845
 20
79.56830526645548
 30
0.0
 41
1.0
 10
188.390486635796
 20
80.0841885430983
 30
0.0
 41
1.0
 10
188.882326745727
 20
80.6050863126141
 30
0.0
 41
1.0
 10
189.370548033255
 20
81.1309073913892
 30
0.0
 41
1.0
 10
189.855139651563
 20
81.6616224739755
 30
0.0
 41
1.0
 10
190.336077179015
 20
82.19723007095129
 30
0.0
 41
1.0
 10
190.813340800216
 20
82.73772092240631
 30
0.0
 41
1.0
 10
191.286935027803
 20
83.28303941595689
 30
0.0
 41
1.0
 10
191.756883342425
 20
83.8330939770684
 30
0.0
 41
1.0
 10
192.223219910802
 20
84.38777317532119
 30
0.0
 41
1.0
 10
192.685982287515
 20
84.9469599253046
 30
0.0
 41
1.0
 10
193.145203987655
 20
85.5105459499136
 30
0.0
 41
1.0
 10
193.600906466627
 20
86.0784474231191
 30
0.0
 41
1.0
 10
194.053101612333
 20
86.6505999961507
 30
0.0
 41
1.0
 10
194.501795257224
 20
87.2269518372589
 30
0.0
 41
1.0
 10
194.946990394556
 20
87.807457265172
 30
0.0
 41
1.0
 10
195.388690409647
 20
88.3920703699074
 30
0.0
 41
1.0
 10
195.82690267689
 20
88.9807379247133
 30
0.0
 41
1.0
 10
196.261637627776
 20
89.57340125787961
 30
0.0
 41
1.0
 10
196.692907297212
 20
90.1699991661471
 30
0.0
 41
1.0
 10
197.120724053385
 20
90.770470490002
 30
0.0
 41
1.0
 10
197.545099345537
 20
91.3747566490777
 30
0.0
 41
1.0
 10
197.966042289331
 20
91.9828045666018
 30
0.0
 41
1.0
 10
198.383559937553
 20
92.5945658815105
 30
0.0
 41
1.0
 10
198.797657890978
 20
93.2099954375971
 30
0.0
 41
1.0
 10
199.208340829772
 20
93.8290499506468
 30
0.0
 41
1.0
 10
199.615613063349
 20
94.4516866952316
 30
0.0
 41
1.0
 10
200.019479196192
 20
95.0778618541455
 30
0.0
 41
1.0
 10
200.419944151079
 20
95.70753085714661
 30
0.0
 41
1.0
 10
200.817012973627
 20
96.3406493803549
 30
0.0
 41
1.0
 10
201.210690736087
 20
96.9771741531408
 30
0.0
 41
1.0
 10
201.600982418125
 20
97.61706370830372
 30
0.0
 41
1.0
 10
201.987892839292
 20
98.26027941439419
 30
0.0
 41
1.0
 10
202.371426519697
 20
98.9067850793286
 30
0.0
 41
1.0
 10
202.751587515957
 20
99.5565456615944
 30
0.0
 41
1.0
 10
203.12837927262
 20
100.209526152763
 30
0.0
 41
1.0
 10
203.50180452195
 20
100.865690536007
 30
0.0
 41
1.0
 10
203.871865112474
 20
101.525000272761
 30
0.0
 41
1.0
 10
204.238562164236
 20
102.187414485579
 30
0.0
 41
1.0
 10
204.601896627691
 20
102.852892353778
 30
0.0
 41
1.0
 10
204.961869785816
 20
103.52139497172
 30
0.0
 41
1.0
 10
205.31848375469
 20
104.192887318905
 30
0.0
 41
1.0
 10
205.671742128135
 20
104.867340367767
 30
0.0
 41
1.0
 10
206.021650221957
 20
105.544732484764
 30
0.0
 41
1.0
 10
206.368213882892
 20
106.225048291205
 30
0.0
 41
1.0
 10
206.642793620782
 20
106.771632006768
 30
0.0
 41
1.0
 10
206.847227693019
 20
107.182878667712
 30
0.0
 41
1.0
 10
206.982850304702
 20
107.457624637467
 30
0.0
 41
1.0
 10
207.050494918075
 20
107.5951430046
 30
0.0
 41
1.0
  0
ARC
  5
1000016D
102
{ACAD_XDICTIONARY
360
1000016E
102
}
330
1F
100
AcDbEntity
  8
VISIBLE
100
AcDbCircle
 10
0.0000000000084918
 20
0.0000000000049027
 30
0.0
 40
233.33799999999
100
AcDbArc
 50
27.45893903063141
 51
32.54106096936862
  0
SPLINE
  5
10000173
102
{ACAD_XDICTIONARY
360
10000174
102
}
330
1F
100
AcDbEntity
  8
VISIBLE
100
AcDbSpline
210
0.0
220
0.0
230
1.0
 70
    12
 71
     5
 72
    81
 73
    75
 74
     0
 42
0.0000000001
 43
0.00000001
 40
0.0
 40
0.0
 40
0.0
 40
0.0
 40
0.0
 40
0.0
 40
0.0142857142857143
 40
0.0285714285714286
 40
0.0428571428571429
 40
0.0571428571428571
 40
0.0714285714285714
 40
0.0857142857142857
 40
0.1
 40
0.114285714285714
 40
0.128571428571429
 40
0.142857142857143
 40
0.157142857142857
 40
0.171428571428571
 40
0.185714285714286
 40
0.2
 40
0.214285714285714
 40
0.228571428571429
 40
0.242857142857143
 40
0.257142857142857
 40
0.271428571428571
 40
0.285714285714286
 40
0.3
 40
0.314285714285714
 40
0.328571428571429
 40
0.342857142857143
 40
0.357142857142857
 40
0.371428571428571
 40
0.385714285714286
 40
0.4
 40
0.414285714285714
 40
0.428571428571429
 40
0.442857142857143
 40
0.457142857142857
 40
0.471428571428572
 40
0.485714285714286
 40
0.5
 40
0.514285714285714
 40
0.528571428571429
 40
0.542857142857143
 40
0.5571428571428569
 40
0.571428571428571
 40
0.585714285714286
 40
0.6
 40
0.614285714285714
 40
0.628571428571428
 40
0.642857142857142
 40
0.6571428571428569
 40
0.6714285714285709
 40
0.6857142857142849
 40
0.7
 40
0.714285714285714
 40
0.728571428571428
 40
0.742857142857142
 40
0.7571428571428559
 40
0.7714285714285709
 40
0.7857142857142849
 40
0.8
 40
0.8142857142857131
 40
0.8285714285714281
 40
0.842857142857142
 40
0.857142857142856
 40
0.87142857142857
 40
0.885714285714284
 40
0.9
 40
0.914285714285713
 40
0.928571428571427
 40
0.9428571428571411
 40
0.957142857142856
 40
0.97142857142857
 40
0.985714285714284
 40
1.0
 40
1.0
 40
1.0
 40
1.0
 40
1.0
 40
1.0
 10
147.382899724439
 20
116.621535665067
 30
0.0
 41
1.0
 10
147.490894659553
 20
116.7069806666
 30
0.0
 41
1.0
 10
147.709376426835
 20
116.874164583953
 30
0.0
 41
1.0
 10
148.0445745814
 20
117.113822485812
 30
0.0
 41
1.0
 10
148.505686423575
 20
117.412277857066
 30
0.0
 41
1.0
 10
149.101263119612
 20
117.756815060256
 30
0.0
 41
1.0
 10
149.710425969252
 20
118.08112716271
 30
0.0
 41
1.0
 10
150.327704541496
 20
118.393288763333
 30
0.0
 41
1.0
 10
150.949237498828
 20
118.698922842832
 30
0.0
 41
1.0
 10
151.573673071165
 20
118.999854316616
 30
0.0
 41
1.0
 10
152.201228464448
 20
119.295541716087
 30
0.0
 41
1.0
 10
152.833035139424
 20
119.584078144193
 30
0.0
 41
1.0
 10
153.470427801856
 20
119.863275583433
 30
0.0
 41
1.0
 10
154.114125941793
 20
120.131915314402
 30
0.0
 41
1.0
 10
154.763951679204
 20
120.390175324861
 30
0.0
 41
1.0
 10
155.419236392559
 20
120.639001779173
 30
0.0
 41
1.0
 10
156.07906020811
 20
120.8797365322
 30
0.0
 41
1.0
 10
156.742535211017
 20
121.113678099502
 30
0.0
 41
1.0
 10
157.409129006861
 20
121.341579632558
 30
0.0
 41
1.0
 10
158.078691830272
 20
121.563606343513
 30
0.0
 41
1.0
 10
158.751293151481
 20
121.779587952711
 30
0.0
 41
1.0
 10
159.427113272557
 20
121.989185992871
 30
0.0
 41
1.0
 10
160.106320993791
 20
122.192082712028
 30
0.0
 41
1.0
 10
160.788935052547
 20
122.388195062154
 30
0.0
 41
1.0
 10
161.47483533473
 20
122.577657088762
 30
0.0
 41
1.0
 10
162.163825164097
 20
122.760723338249
 30
0.0
 41
1.0
 10
162.855677488248
 20
122.937697177786
 30
0.0
 41
1.0
 10
163.550185037683
 20
123.108852986363
 30
0.0
 41
1.0
 10
164.247215793824
 20
123.274350131405
 30
0.0
 41
1.0
 10
164.946700849653
 20
123.434251629685
 30
0.0
 41
1.0
 10
165.648609402498
 20
123.588562740308
 30
0.0
 41
1.0
 10
166.352927951665
 20
123.737263058227
 30
0.0
 41
1.0
 10
167.059638570139
 20
123.880340052762
 30
0.0
 41
1.0
 10
167.768695352501
 20
124.017825438163
 30
0.0
 41
1.0
 10
168.480030733202
 20
124.149785336535
 30
0.0
 41
1.0
 10
169.193565294028
 20
124.276305052337
 30
0.0
 41
1.0
 10
169.90921641333
 20
124.397475651494
 30
0.0
 41
1.0
 10
170.626907077929
 20
124.51338029748
 30
0.0
 41
1.0
 10
171.346575420058
 20
124.624079484235
 30
0.0
 41
1.0
 10
172.068171655997
 20
124.729615681369
 30
0.0
 41
1.0
 10
172.79165381436
 20
124.830019855807
 30
0.0
 41
1.0
 10
173.516983830633
 20
124.925317440421
 30
0.0
 41
1.0
 10
174.244123638265
 20
125.015534321974
 30
0.0
 41
1.0
 10
174.973030828732
 20
125.100703500253
 30
0.0
 41
1.0
 10
175.703659806588
 20
125.18086334505
 30
0.0
 41
1.0
 10
176.435963585711
 20
125.25605488053
 30
0.0
 41
1.0
 10
177.1698953845
 20
125.326319397613
 30
0.0
 41
1.0
 10
177.905410195491
 20
125.391696101817
 30
0.0
 41
1.0
 10
178.642466610682
 20
125.452219425925
 30
0.0
 41
1.0
 10
179.381026274556
 20
125.507919658358
 30
0.0
 41
1.0
 10
180.12105288108
 20
125.558824227637
 30
0.0
 41
1.0
 10
180.862511285105
 20
125.604958829008
 30
0.0
 41
1.0
 10
181.605366640034
 20
125.646348557249
 30
0.0
 41
1.0
 10
182.349583301293
 20
125.683019308563
 30
0.0
 41
1.0
 10
183.095125131312
 20
125.71499763132
 30
0.0
 41
1.0
 10
183.84195626729
 20
125.742310057093
 30
0.0
 41
1.0
 10
184.590041771891
 20
125.764982613895
 30
0.0
 41
1.0
 10
185.339348223297
 20
125.783040347845
 30
0.0
 41
1.0
 10
186.089844575468
 20
125.796506748519
 30
0.0
 41
1.0
 10
186.841501745195
 20
125.805403826489
 30
0.0
 41
1.0
 10
187.594291413945
 20
125.809752615645
 30
0.0
 41
1.0
 10
188.348184985803
 20
125.809573603268
 30
0.0
 41
1.0
 10
189.103152635417
 20
125.80488716398
 30
0.0
 41
1.0
 10
189.85916191167
 20
125.795714167937
 30
0.0
 41
1.0
 10
190.616177973679
 20
125.782076023847
 30
0.0
 41
1.0
 10
191.374165944923
 20
125.763993965169
 30
0.0
 41
1.0
 10
192.13309277362
 20
125.741488555815
 30
0.0
 41
1.0
 10
192.892929189166
 20
125.714579138612
 30
0.0
 41
1.0
 10
193.653651849863
 20
125.683283339684
 30
0.0
 41
1.0
 10
194.415244678417
 20
125.647616579425
 30
0.0
 41
1.0
 10
195.177697279858
 20
125.607591610603
 30
0.0
 41
1.0
 10
195.788342531776
 20
125.572092781199
 30
0.0
 41
1.0
 10
196.246709623494
 20
125.543514550683
 30
0.0
 41
1.0
 10
196.55245791873
 20
125.523594192851
 30
0.0
 41
1.0
 10
196.705374624841
 20
125.513416962894
 30
0.0
 41
1.0
  0
LINE
  5
10000177
102
{ACAD_XDICTIONARY
360
10000178
102
}
330
1F
100
AcDbEntity
  8
VISIBLE
100
AcDbLine
 10
127.8352438060118
 20
101.1555373000202
 30
0.0
 11
147.3828997244386
 21
116.6215356650674
 31
0.0
  0
ARC
  5
1000017B
102
{ACAD_XDICTIONARY
360
1000017C
102
}
330
1F
100
AcDbEntity
  8
VISIBLE
100
AcDbCircle
 10
126.85023925747
 20
102.40049605008
 30
0.0
 40
1.5875
100
AcDbArc
 50
218.9123784019277
 51
308.3508521612071
  0
ARC
  5
10000181
102
{ACAD_XDICTIONARY
360
10000182
102
}
330
1F
100
AcDbEntity
  8
VISIBLE
100
AcDbCircle
 10
0.0
 20
0.0
 30
0.0
 40
161.436562
100
AcDbArc
 50
38.91237840193587
 51
51.08762159806444
  0
ARC
  5
10000187
102
{ACAD_XDICTIONARY
360
10000188
102
}
330
1F
100
AcDbEntity
  8
VISIBLE
100
AcDbCircle
 10
102.40049605008
 20
126.85023925747
 30
0.0
 40
1.5875
100
AcDbArc
 50
141.6491478387929
 51
231.0876215980465
  0
LINE
  5
1000018D
102
{ACAD_XDICTIONARY
360
1000018E
102
}
330
1F
100
AcDbEntity
  8
VISIBLE
100
AcDbLine
 10
101.1555373000196
 20
127.8352438060122
 30
0.0
 11
116.621535665067
 21
147.382899724439
 31
0.0
  0
SPLINE
  5
10000191
102
{ACAD_XDICTIONARY
360
10000192
102
}
330
1F
100
AcDbEntity
  8
VISIBLE
100
AcDbSpline
210
0.0
220
0.0
230
1.0
 70
    12
 71
     5
 72
    81
 73
    75
 74
     0
 42
0.0000000001
 43
0.00000001
 40
0.0
 40
0.0
 40
0.0
 40
0.0
 40
0.0
 40
0.0
 40
0.0142857142857143
 40
0.0285714285714286
 40
0.0428571428571429
 40
0.0571428571428571
 40
0.0714285714285714
 40
0.0857142857142857
 40
0.1
 40
0.114285714285714
 40
0.128571428571429
 40
0.142857142857143
 40
0.157142857142857
 40
0.171428571428571
 40
0.185714285714286
 40
0.2
 40
0.214285714285714
 40
0.228571428571429
 40
0.242857142857143
 40
0.257142857142857
 40
0.271428571428571
 40
0.285714285714286
 40
0.3
 40
0.314285714285714
 40
0.328571428571429
 40
0.342857142857143
 40
0.357142857142857
 40
0.371428571428571
 40
0.385714285714286
 40
0.4
 40
0.414285714285714
 40
0.428571428571429
 40
0.442857142857143
 40
0.457142857142857
 40
0.471428571428572
 40
0.485714285714286
 40
0.5
 40
0.514285714285714
 40
0.528571428571429
 40
0.542857142857143
 40
0.5571428571428569
 40
0.571428571428571
 40
0.585714285714286
 40
0.6
 40
0.614285714285714
 40
0.628571428571428
 40
0.642857142857142
 40
0.6571428571428569
 40
0.6714285714285709
 40
0.6857142857142849
 40
0.7
 40
0.714285714285714
 40
0.728571428571428
 40
0.742857142857142
 40
0.7571428571428559
 40
0.7714285714285709
 40
0.7857142857142849
 40
0.8
 40
0.8142857142857131
 40
0.8285714285714281
 40
0.842857142857142
 40
0.857142857142856
 40
0.87142857142857
 40
0.885714285714284
 40
0.9
 40
0.914285714285713
 40
0.928571428571427
 40
0.9428571428571411
 40
0.957142857142856
 40
0.97142857142857
 40
0.985714285714284
 40
1.0
 40
1.0
 40
1.0
 40
1.0
 40
1.0
 40
1.0
 10
116.621535665067
 20
147.382899724439
 30
0.0
 41
1.0
 10
116.7069806666
 20
147.490894659553
 30
0.0
 41
1.0
 10
116.874164583952
 20
147.709376426835
 30
0.0
 41
1.0
 10
117.113822485811
 20
148.0445745814
 30
0.0
 41
1.0
 10
117.412277857066
 20
148.505686423575
 30
0.0
 41
1.0
 10
117.756815060255
 20
149.101263119612
 30
0.0
 41
1.0
 10
118.08112716271
 20
149.710425969252
 30
0.0
 41
1.0
 10
118.393288763333
 20
150.327704541496
 30
0.0
 41
1.0
 10
118.698922842832
 20
150.949237498828
 30
0.0
 41
1.0
 10
118.999854316616
 20
151.573673071165
 30
0.0
 41
1.0
 10
119.295541716087
 20
152.201228464448
 30
0.0
 41
1.0
 10
119.584078144193
 20
152.833035139425
 30
0.0
 41
1.0
 10
119.863275583433
 20
153.470427801856
 30
0.0
 41
1.0
 10
120.131915314402
 20
154.114125941794
 30
0.0
 41
1.0
 10
120.390175324861
 20
154.763951679204
 30
0.0
 41
1.0
 10
120.639001779173
 20
155.419236392559
 30
0.0
 41
1.0
 10
120.8797365322
 20
156.07906020811
 30
0.0
 41
1.0
 10
121.113678099501
 20
156.742535211017
 30
0.0
 41
1.0
 10
121.341579632558
 20
157.409129006861
 30
0.0
 41
1.0
 10
121.563606343513
 20
158.078691830272
 30
0.0
 41
1.0
 10
121.779587952711
 20
158.751293151482
 30
0.0
 41
1.0
 10
121.989185992871
 20
159.427113272557
 30
0.0
 41
1.0
 10
122.192082712028
 20
160.106320993791
 30
0.0
 41
1.0
 10
122.388195062154
 20
160.788935052547
 30
0.0
 41
1.0
 10
122.577657088762
 20
161.474835334731
 30
0.0
 41
1.0
 10
122.760723338249
 20
162.163825164097
 30
0.0
 41
1.0
 10
122.937697177786
 20
162.855677488248
 30
0.0
 41
1.0
 10
123.108852986363
 20
163.550185037684
 30
0.0
 41
1.0
 10
123.274350131405
 20
164.247215793825
 30
0.0
 41
1.0
 10
123.434251629685
 20
164.946700849653
 30
0.0
 41
1.0
 10
123.588562740308
 20
165.648609402499
 30
0.0
 41
1.0
 10
123.737263058227
 20
166.352927951666
 30
0.0
 41
1.0
 10
123.880340052762
 20
167.059638570139
 30
0.0
 41
1.0
 10
124.017825438163
 20
167.768695352501
 30
0.0
 41
1.0
 10
124.149785336535
 20
168.480030733202
 30
0.0
 41
1.0
 10
124.276305052336
 20
169.193565294028
 30
0.0
 41
1.0
 10
124.397475651494
 20
169.90921641333
 30
0.0
 41
1.0
 10
124.51338029748
 20
170.626907077929
 30
0.0
 41
1.0
 10
124.624079484235
 20
171.346575420058
 30
0.0
 41
1.0
 10
124.729615681368
 20
172.068171655997
 30
0.0
 41
1.0
 10
124.830019855807
 20
172.79165381436
 30
0.0
 41
1.0
 10
124.92531744042
 20
173.516983830633
 30
0.0
 41
1.0
 10
125.015534321973
 20
174.244123638265
 30
0.0
 41
1.0
 10
125.100703500253
 20
174.973030828732
 30
0.0
 41
1.0
 10
125.18086334505
 20
175.703659806589
 30
0.0
 41
1.0
 10
125.256054880529
 20
176.435963585711
 30
0.0
 41
1.0
 10
125.326319397613
 20
177.1698953845
 30
0.0
 41
1.0
 10
125.391696101817
 20
177.905410195491
 30
0.0
 41
1.0
 10
125.452219425925
 20
178.642466610682
 30
0.0
 41
1.0
 10
125.507919658358
 20
179.381026274556
 30
0.0
 41
1.0
 10
125.558824227637
 20
180.12105288108
 30
0.0
 41
1.0
 10
125.604958829008
 20
180.862511285105
 30
0.0
 41
1.0
 10
125.646348557249
 20
181.605366640034
 30
0.0
 41
1.0
 10
125.683019308562
 20
182.349583301294
 30
0.0
 41
1.0
 10
125.71499763132
 20
183.095125131312
 30
0.0
 41
1.0
 10
125.742310057092
 20
183.84195626729
 30
0.0
 41
1.0
 10
125.764982613895
 20
184.590041771891
 30
0.0
 41
1.0
 10
125.783040347844
 20
185.339348223297
 30
0.0
 41
1.0
 10
125.796506748518
 20
186.089844575468
 30
0.0
 41
1.0
 10
125.805403826489
 20
186.841501745195
 30
0.0
 41
1.0
 10
125.809752615645
 20
187.594291413945
 30
0.0
 41
1.0
 10
125.809573603267
 20
188.348184985804
 30
0.0
 41
1.0
 10
125.80488716398
 20
189.103152635417
 30
0.0
 41
1.0
 10
125.795714167936
 20
189.85916191167
 30
0.0
 41
1.0
 10
125.782076023847
 20
190.616177973679
 30
0.0
 41
1.0
 10
125.763993965169
 20
191.374165944923
 30
0.0
 41
1.0
 10
125.741488555815
 20
192.13309277362
 30
0.0
 41
1.0
 10
125.714579138612
 20
192.892929189166
 30
0.0
 41
1.0
 10
125.683283339684
 20
193.653651849863
 30
0.0
 41
1.0
 10
125.647616579425
 20
194.415244678417
 30
0.0
 41
1.0
 10
125.607591610602
 20
195.177697279858
 30
0.0
 41
1.0
 10
125.572092781198
 20
195.788342531776
 30
0.0
 41
1.0
 10
125.543514550682
 20
196.246709623494
 30
0.0
 41
1.0
 10
125.523594192851
 20
196.55245791873
 30
0.0
 41
1.0
 10
125.513416962893
 20
196.705374624841
 30
0.0
 41
1.0
  0
ARC
  5
10000195
102
{ACAD_XDICTIONARY
360
10000196
102
}
330
1F
100
AcDbEntity
  8
VISIBLE
100
AcDbCircle
 10
0.0000000000049027
 20
0.0000000000084918
 30
0.0
 40
233.33799999999
100
AcDbArc
 50
57.45893903063158
 51
62.54106096936864
  0
SPLINE
  5
1000019B
102
{ACAD_XDICTIONARY
360
1000019C
102
}
330
1F
100
AcDbEntity
  8
VISIBLE
100
AcDbSpline
210
0.0
220
0.0
230
1.0
 70
    12
 71
     5
 72
    81
 73
    75
 74
     0
 42
0.0000000001
 43
0.00000001
 40
0.0
 40
0.0
 40
0.0
 40
0.0
 40
0.0
 40
0.0
 40
0.0142857142857143
 40
0.0285714285714286
 40
0.0428571428571429
 40
0.0571428571428571
 40
0.0714285714285714
 40
0.0857142857142857
 40
0.1
 40
0.114285714285714
 40
0.128571428571429
 40
0.142857142857143
 40
0.157142857142857
 40
0.171428571428571
 40
0.185714285714286
 40
0.2
 40
0.214285714285714
 40
0.228571428571429
 40
0.242857142857143
 40
0.257142857142857
 40
0.271428571428571
 40
0.285714285714286
 40
0.3
 40
0.314285714285714
 40
0.328571428571429
 40
0.342857142857143
 40
0.357142857142857
 40
0.371428571428571
 40
0.385714285714286
 40
0.4
 40
0.414285714285714
 40
0.428571428571429
 40
0.442857142857143
 40
0.457142857142857
 40
0.471428571428572
 40
0.485714285714286
 40
0.5
 40
0.514285714285714
 40
0.528571428571429
 40
0.542857142857143
 40
0.5571428571428569
 40
0.571428571428571
 40
0.585714285714286
 40
0.6
 40
0.614285714285714
 40
0.628571428571428
 40
0.642857142857142
 40
0.6571428571428569
 40
0.6714285714285709
 40
0.6857142857142849
 40
0.7
 40
0.714285714285714
 40
0.728571428571428
 40
0.742857142857142
 40
0.7571428571428559
 40
0.7714285714285709
 40
0.7857142857142849
 40
0.8
 40
0.8142857142857131
 40
0.8285714285714281
 40
0.842857142857142
 40
0.857142857142856
 40
0.87142857142857
 40
0.885714285714284
 40
0.9
 40
0.914285714285713
 40
0.928571428571427
 40
0.9428571428571411
 40
0.957142857142856
 40
0.97142857142857
 40
0.985714285714284
 40
1.0
 40
1.0
 40
1.0
 40
1.0
 40
1.0
 40
1.0
 10
69.3265674122448
 20
174.68866237652
 30
0.0
 41
1.0
 10
69.3773712687676
 20
174.816657386032
 30
0.0
 41
1.0
 10
69.48299007082109
 20
175.070683789204
 30
0.0
 41
1.0
 10
69.6534512370467
 20
175.445832697714
 30
0.0
 41
1.0
 10
69.9035581207285
 20
175.934858552204
 30
0.0
 41
1.0
 10
70.24707406780381
 20
176.531024870733
 30
0.0
 41
1.0
 10
70.61246851940639
 20
177.116468815034
 30
0.0
 41
1.0
 10
70.9909666438701
 20
177.695447977381
 30
0.0
 41
1.0
 10
71.37641293445961
 20
178.270901333156
 30
0.0
 41
1.0
 10
71.7667242662381
 20
178.84373342042
 30
0.0
 41
1.0
 10
72.1623594793675
 20
179.413583916582
 30
0.0
 41
1.0
 10
72.56525189612479
 20
179.979367130727
 30
0.0
 41
1.0
 10
72.9776514143564
 20
180.539855536996
 30
0.0
 41
1.0
 10
73.4007904904263
 20
181.09435343845
 30
0.0
 41
1.0
 10
73.83442608182719
 20
181.642926036994
 30
0.0
 41
1.0
 10
74.2775060631481
 20
182.186058424239
 30
0.0
 41
1.0
 10
74.72856287292409
 20
182.72445274371
 30
0.0
 41
1.0
 10
75.1861782965668
 20
183.258789585448
 30
0.0
 41
1.0
 10
75.649514691244
 20
183.789455000558
 30
0.0
 41
1.0
 10
76.1183597502708
 20
184.31651718427
 30
0.0
 41
1.0
 10
76.5928587764577
 20
184.83986340519
 30
0.0
 41
1.0
 10
77.0733371496177
 20
185.35929069309
 30
0.0
 41
1.0
 10
77.56009993107429
 20
185.874608266841
 30
0.0
 41
1.0
 10
78.0532048718749
 20
186.385753573425
 30
0.0
 41
1.0
 10
78.5524809274043
 20
186.892782642611
 30
0.0
 41
1.0
 10
79.0576304978414
 20
187.395817579925
 30
0.0
 41
1.0
 10
79.5683052664552
 20
187.895007582845
 30
0.0
 41
1.0
 10
80.084188543098
 20
188.390486635796
 30
0.0
 41
1.0
 10
80.6050863126138
 20
188.882326745727
 30
0.0
 41
1.0
 10
81.13090739138899
 20
189.370548033255
 30
0.0
 41
1.0
 10
81.6616224739753
 20
189.855139651563
 30
0.0
 41
1.0
 10
82.197230070951
 20
190.336077179015
 30
0.0
 41
1.0
 10
82.737720922406
 20
190.813340800216
 30
0.0
 41
1.0
 10
83.2830394159567
 20
191.286935027803
 30
0.0
 41
1.0
 10
83.8330939770682
 20
191.756883342425
 30
0.0
 41
1.0
 10
84.3877731753209
 20
192.223219910802
 30
0.0
 41
1.0
 10
84.9469599253043
 20
192.685982287515
 30
0.0
 41
1.0
 10
85.5105459499134
 20
193.145203987655
 30
0.0
 41
1.0
 10
86.07844742311879
 20
193.600906466628
 30
0.0
 41
1.0
 10
86.65059999615039
 20
194.053101612333
 30
0.0
 41
1.0
 10
87.2269518372586
 20
194.501795257225
 30
0.0
 41
1.0
 10
87.80745726517179
 20
194.946990394556
 30
0.0
 41
1.0
 10
88.3920703699072
 20
195.388690409647
 30
0.0
 41
1.0
 10
88.9807379247131
 20
195.82690267689
 30
0.0
 41
1.0
 10
89.5734012578793
 20
196.261637627776
 30
0.0
 41
1.0
 10
90.1699991661468
 20
196.692907297212
 30
0.0
 41
1.0
 10
90.7704704900018
 20
197.120724053385
 30
0.0
 41
1.0
 10
91.37475664907738
 20
197.545099345537
 30
0.0
 41
1.0
 10
91.9828045666016
 20
197.966042289332
 30
0.0
 41
1.0
 10
92.5945658815102
 20
198.383559937553
 30
0.0
 41
1.0
 10
93.20999543759689
 20
198.797657890979
 30
0.0
 41
1.0
 10
93.8290499506465
 20
199.208340829772
 30
0.0
 41
1.0
 10
94.4516866952314
 20
199.615613063349
 30
0.0
 41
1.0
 10
95.0778618541453
 20
200.019479196192
 30
0.0
 41
1.0
 10
95.7075308571463
 20
200.419944151079
 30
0.0
 41
1.0
 10
96.34064938035469
 20
200.817012973627
 30
0.0
 41
1.0
 10
96.9771741531405
 20
201.210690736087
 30
0.0
 41
1.0
 10
97.6170637083034
 20
201.600982418125
 30
0.0
 41
1.0
 10
98.26027941439399
 20
201.987892839292
 30
0.0
 41
1.0
 10
98.90678507932829
 20
202.371426519697
 30
0.0
 41
1.0
 10
99.5565456615942
 20
202.751587515957
 30
0.0
 41
1.0
 10
100.209526152763
 20
203.12837927262
 30
0.0
 41
1.0
 10
100.865690536007
 20
203.50180452195
 30
0.0
 41
1.0
 10
101.525000272761
 20
203.871865112474
 30
0.0
 41
1.0
 10
102.187414485578
 20
204.238562164237
 30
0.0
 41
1.0
 10
102.852892353777
 20
204.601896627691
 30
0.0
 41
1.0
 10
103.52139497172
 20
204.961869785816
 30
0.0
 41
1.0
 10
104.192887318905
 20
205.31848375469
 30
0.0
 41
1.0
 10
104.867340367766
 20
205.671742128136
 30
0.0
 41
1.0
 10
105.544732484764
 20
206.021650221957
 30
0.0
 41
1.0
 10
106.225048291205
 20
206.368213882892
 30
0.0
 41
1.0
 10
106.771632006768
 20
206.642793620783
 30
0.0
 41
1.0
 10
107.182878667712
 20
206.847227693019
 30
0.0
 41
1.0
 10
107.457624637466
 20
206.982850304703
 30
0.0
 41
1.0
 10
107.5951430046
 20
207.050494918075
 30
0.0
 41
1.0
  0
LINE
  5
1000019F
102
{ACAD_XDICTIONARY
360
100001A0
102
}
330
1F
100
AcDbEntity
  8
VISIBLE
100
AcDbLine
 10
60.1307999849738
 20
151.520886938288
 30
0.0
 11
69.32656741224459
 21
174.68866237652
 31
0.0
  0
ARC
  5
100001A3
102
{ACAD_XDICTIONARY
360
100001A4
102
}
330
1F
100
AcDbEntity
  8
VISIBLE
100
AcDbCircle
 10
58.655281648063
 20
152.106550568232
 30
0.0
 40
1.5875
100
AcDbArc
 50
248.9123784019336
 51
338.3508521612405
  0
ARC
  5
100001A9
102
{ACAD_XDICTIONARY
360
100001AA
102
}
330
1F
100
AcDbEntity
  8
VISIBLE
100
AcDbCircle
 10
0.0
 20
0.0
 30
0.0
 40
161.436562
100
AcDbArc
 50
68.91237840193584
 51
81.08762159806426
  0
ARC
  5
100001AF
102
{ACAD_XDICTIONARY
360
100001B0
102
}
330
1F
100
AcDbEntity
  8
VISIBLE
100
AcDbCircle
 10
25.2563113107623
 20
161.055777698143
 30
0.0
 40
1.5875
100
AcDbArc
 50
171.6491478387745
 51
261.0876215980625
  0
LINE
  5
100001B5
102
{ACAD_XDICTIONARY
360
100001B6
102
}
330
1F
100
AcDbEntity
  8
VISIBLE
100
AcDbLine
 10
23.68564313227545
 20
161.286337284994
 30
0.0
 11
27.3057626520815
 21
185.948103077312
 31
0.0
  0
SPLINE
  5
100001B9
102
{ACAD_XDICTIONARY
360
100001BA
102
}
330
1F
100
AcDbEntity
  8
VISIBLE
100
AcDbSpline
210
0.0
220
0.0
230
1.0
 70
    12
 71
     5
 72
    81
 73
    75
 74
     0
 42
0.0000000001
 43
0.00000001
 40
0.0
 40
0.0
 40
0.0
 40
0.0
 40
0.0
 40
0.0
 40
0.0142857142857143
 40
0.0285714285714286
 40
0.0428571428571429
 40
0.0571428571428571
 40
0.0714285714285714
 40
0.0857142857142857
 40
0.1
 40
0.114285714285714
 40
0.128571428571429
 40
0.142857142857143
 40
0.157142857142857
 40
0.171428571428571
 40
0.185714285714286
 40
0.2
 40
0.214285714285714
 40
0.228571428571429
 40
0.242857142857143
 40
0.257142857142857
 40
0.271428571428571
 40
0.285714285714286
 40
0.3
 40
0.314285714285714
 40
0.328571428571429
 40
0.342857142857143
 40
0.357142857142857
 40
0.371428571428571
 40
0.385714285714286
 40
0.4
 40
0.414285714285714
 40
0.428571428571429
 40
0.442857142857143
 40
0.457142857142857
 40
0.471428571428572
 40
0.485714285714286
 40
0.5
 40
0.514285714285714
 40
0.528571428571429
 40
0.542857142857143
 40
0.5571428571428569
 40
0.571428571428571
 40
0.585714285714286
 40
0.6
 40
0.614285714285714
 40
0.628571428571428
 40
0.642857142857142
 40
0.6571428571428569
 40
0.6714285714285709
 40
0.6857142857142849
 40
0.7
 40
0.714285714285714
 40
0.728571428571428
 40
0.742857142857142
 40
0.7571428571428559
 40
0.7714285714285709
 40
0.7857142857142849
 40
0.8
 40
0.8142857142857131
 40
0.8285714285714281
 40
0.842857142857142
 40
0.857142857142856
 40
0.87142857142857
 40
0.885714285714284
 40
0.9
 40
0.914285714285713
 40
0.928571428571427
 40
0.9428571428571411
 40
0.957142857142856
 40
0.97142857142857
 40
0.985714285714284
 40
1.0
 40
1.0
 40
1.0
 40
1.0
 40
1.0
 40
1.0
 10
27.3057626520816
 20
185.948103077312
 30
0.0
 41
1.0
 10
27.3257627264782
 20
186.084351935368
 30
0.0
 41
1.0
 10
27.3613073623688
 20
186.357154654774
 30
0.0
 41
1.0
 10
27.4012581163138
 20
186.767273722858
 30
0.0
 41
1.0
 10
27.4291721286289
 20
187.315835977795
 30
0.0
 41
1.0
 10
27.4297617511213
 20
188.003889128059
 30
0.0
 41
1.0
 10
27.4060428457819
 20
188.693595682117
 30
0.0
 41
1.0
 10
27.3677434358851
 20
189.384255407203
 30
0.0
 41
1.0
 10
27.3216638343275
 20
190.075335777292
 30
0.0
 41
1.0
 10
27.2700603492543
 20
190.766578582854
 30
0.0
 41
1.0
 10
27.2123554521335
 20
191.457901195455
 30
0.0
 41
1.0
 10
27.1463319913023
 20
192.149330040318
 30
0.0
 41
1.0
 10
27.0694277351397
 20
192.840926997789
 30
0.0
 41
1.0
 10
26.9802274966563
 20
193.532705804829
 30
0.0
 41
1.0
 10
26.8789743577903
 20
194.224601406689
 30
0.0
 41
1.0
 10
26.7668220316804
 20
194.916507842321
 30
0.0
 41
1.0
 10
26.6453925355998
 20
195.608299405124
 30
0.0
 41
1.0
 10
26.5162543744307
 20
196.299856396068
 30
0.0
 41
1.0
 10
26.3803259936976
 20
196.991094323803
 30
0.0
 41
1.0
 10
26.2378253539971
 20
197.681966093784
 30
0.0
 41
1.0
 10
26.0885702537086
 20
198.372446729169
 30
0.0
 41
1.0
 10
25.9321774205327
 20
199.062523142489
 30
0.0
 41
1.0
 10
25.7682872730503
 20
199.752182643103
 30
0.0
 41
1.0
 10
25.5968185208772
 20
200.441399934029
 30
0.0
 41
1.0
 10
25.4179473078807
 20
201.130138016167
 30
0.0
 41
1.0
 10
25.2319924158282
 20
201.81835383609
 30
0.0
 41
1.0
 10
25.0393300945969
 20
202.506002444241
 30
0.0
 41
1.0
 10
24.8403015981121
 20
203.193041529461
 30
0.0
 41
1.0
 10
24.6351109519022
 20
203.879436444019
 30
0.0
 41
1.0
 10
24.4238471836017
 20
204.565159021074
 30
0.0
 41
1.0
 10
24.2065302490646
 20
205.250185214284
 30
0.0
 41
1.0
 10
23.9831492273496
 20
205.934493129178
 30
0.0
 41
1.0
 10
23.7537022300771
 20
206.618060975168
 30
0.0
 41
1.0
 10
23.5182396753023
 20
207.300864854119
 30
0.0
 41
1.0
 10
23.2768526092232
 20
207.982879313603
 30
0.0
 41
1.0
 10
23.0296546167738
 20
208.664078227658
 30
0.0
 41
1.0
 10
22.7767658741852
 20
209.344435576799
 30
0.0
 41
1.0
 10
22.518296909726
 20
210.023926247394
 30
0.0
 41
1.0
 10
22.2543310465695
 20
210.702526907354
 30
0.0
 41
1.0
 10
21.9849299563365
 20
211.380215677519
 30
0.0
 41
1.0
 10
21.7101414428644
 20
212.056971693066
 30
0.0
 41
1.0
 10
21.4300065639226
 20
212.732774705592
 30
0.0
 41
1.0
 10
21.1445667713819
 20
213.407604691881
 30
0.0
 41
1.0
 10
20.8538718481579
 20
214.081441424966
 30
0.0
 41
1.0
 10
20.5579778211871
 20
214.754264602929
 30
0.0
 41
1.0
 10
20.256943711501
 20
215.426054046677
 30
0.0
 41
1.0
 10
19.9508286688852
 20
216.096789887615
 30
0.0
 41
1.0
 10
19.6396891500462
 20
216.766452750894
 30
0.0
 41
1.0
 10
19.3235756786493
 20
217.435023992526
 30
0.0
 41
1.0
 10
19.0025336629964
 20
218.102485539869
 30
0.0
 41
1.0
 10
18.6766050098985
 20
218.768819665234
 30
0.0
 41
1.0
 10
18.3458295446667
 20
219.434008779654
 30
0.0
 41
1.0
 10
18.0102464233153
 20
220.098035252481
 30
0.0
 41
1.0
 10
17.6698958948986
 20
220.760881162708
 30
0.0
 41
1.0
 10
17.3248190197677
 20
221.422528488466
 30
0.0
 41
1.0
 10
16.9750567063364
 20
222.082959437447
 30
0.0
 41
1.0
 10
16.620648964196
 20
222.742156767036
 30
0.0
 41
1.0
 10
16.2616341948276
 20
223.400104056148
 30
0.0
 41
1.0
 10
15.8980482638234
 20
224.056786162913
 30
0.0
 41
1.0
 10
15.5299247745025
 20
224.712188905818
 30
0.0
 41
1.0
 10
15.1572961020123
 20
225.36629827724
 30
0.0
 41
1.0
 10
14.7801942868161
 20
226.01909975603
 30
0.0
 41
1.0
 10
14.3986518865333
 20
226.670577699987
 30
0.0
 41
1.0
 10
14.0127032008038
 20
227.320714440698
 30
0.0
 41
1.0
 10
13.6223841905571
 20
227.969490509425
 30
0.0
 41
1.0
 10
13.2277306827679
 20
228.616886318947
 30
0.0
 41
1.0
 10
12.8287770121957
 20
229.262883527535
 30
0.0
 41
1.0
 10
12.425554565524
 20
229.907466457517
 30
0.0
 41
1.0
 10
12.0180902782726
 20
230.550623707451
 30
0.0
 41
1.0
 10
11.6064055435406
 20
231.192349064189
 30
0.0
 41
1.0
 10
11.1905166030338
 20
231.832639901807
 30
0.0
 41
1.0
 10
10.8544510890063
 20
232.343724787967
 30
0.0
 41
1.0
 10
10.6005180695256
 20
232.726393218395
 30
0.0
 41
1.0
 10
10.4303923859725
 20
232.981218830317
 30
0.0
 41
1.0
 10
10.345120293234
 20
233.108559967494
 30
0.0
 41
1.0
  0
ARC
  5
100001BD
102
{ACAD_XDICTIONARY
360
100001BE
102
}
330
1F
100
AcDbEntity
  8
VISIBLE
100
AcDbCircle
 10
0.0
 20
0.0000000000098055
 30
0.0
 40
233.33799999999
100
AcDbArc
 50
87.45893903063144
 51
92.54106096936862
  0
SPLINE
  5
100001C3
102
{ACAD_XDICTIONARY
360
100001C4
102
}
330
1F
100
AcDbEntity
  8
VISIBLE
100
AcDbSpline
210
0.0
220
0.0
230
1.0
 70
    12
 71
     5
 72
    81
 73
    75
 74
     0
 42
0.0000000001
 43
0.00000001
 40
0.0
 40
0.0
 40
0.0
 40
0.0
 40
0.0
 40
0.0
 40
0.0142857142857143
 40
0.0285714285714286
 40
0.0428571428571429
 40
0.0571428571428571
 40
0.0714285714285714
 40
0.0857142857142857
 40
0.1
 40
0.114285714285714
 40
0.128571428571429
 40
0.142857142857143
 40
0.157142857142857
 40
0.171428571428571
 40
0.185714285714286
 40
0.2
 40
0.214285714285714
 40
0.228571428571429
 40
0.242857142857143
 40
0.257142857142857
 40
0.271428571428571
 40
0.285714285714286
 40
0.3
 40
0.314285714285714
 40
0.328571428571429
 40
0.342857142857143
 40
0.357142857142857
 40
0.371428571428571
 40
0.385714285714286
 40
0.4
 40
0.414285714285714
 40
0.428571428571429
 40
0.442857142857143
 40
0.457142857142857
 40
0.471428571428572
 40
0.485714285714286
 40
0.5
 40
0.514285714285714
 40
0.528571428571429
 40
0.542857142857143
 40
0.5571428571428569
 40
0.571428571428571
 40
0.585714285714286
 40
0.6
 40
0.614285714285714
 40
0.628571428571428
 40
0.642857142857142
 40
0.6571428571428569
 40
0.6714285714285709
 40
0.6857142857142849
 40
0.7
 40
0.714285714285714
 40
0.728571428571428
 40
0.742857142857142
 40
0.7571428571428559
 40
0.7714285714285709
 40
0.7857142857142849
 40
0.8
 40
0.8142857142857131
 40
0.8285714285714281
 40
0.842857142857142
 40
0.857142857142856
 40
0.87142857142857
 40
0.885714285714284
 40
0.9
 40
0.914285714285713
 40
0.928571428571427
 40
0.9428571428571411
 40
0.957142857142856
 40
0.97142857142857
 40
0.985714285714284
 40
1.0
 40
1.0
 40
1.0
 40
1.0
 40
1.0
 40
1.0
 10
-27.3057626520817
 20
185.948103077312
 30
0.0
 41
1.0
 10
-27.3257627264783
 20
186.084351935368
 30
0.0
 41
1.0
 10
-27.3613073623689
 20
186.357154654774
 30
0.0
 41
1.0
 10
-27.4012581163139
 20
186.767273722858
 30
0.0
 41
1.0
 10
-27.429172128629
 20
187.315835977795
 30
0.0
 41
1.0
 10
-27.4297617511214
 20
188.003889128059
 30
0.0
 41
1.0
 10
-27.406042845782
 20
188.693595682117
 30
0.0
 41
1.0
 10
-27.3677434358852
 20
189.384255407203
 30
0.0
 41
1.0
 10
-27.3216638343276
 20
190.075335777292
 30
0.0
 41
1.0
 10
-27.2700603492544
 20
190.766578582854
 30
0.0
 41
1.0
 10
-27.2123554521336
 20
191.457901195455
 30
0.0
 41
1.0
 10
-27.1463319913024
 20
192.149330040318
 30
0.0
 41
1.0
 10
-27.0694277351398
 20
192.840926997789
 30
0.0
 41
1.0
 10
-26.9802274966564
 20
193.532705804829
 30
0.0
 41
1.0
 10
-26.8789743577904
 20
194.224601406689
 30
0.0
 41
1.0
 10
-26.7668220316805
 20
194.916507842321
 30
0.0
 41
1.0
 10
-26.6453925355999
 20
195.608299405124
 30
0.0
 41
1.0
 10
-26.5162543744308
 20
196.299856396068
 30
0.0
 41
1.0
 10
-26.3803259936977
 20
196.991094323802
 30
0.0
 41
1.0
 10
-26.2378253539972
 20
197.681966093784
 30
0.0
 41
1.0
 10
-26.0885702537087
 20
198.372446729169
 30
0.0
 41
1.0
 10
-25.9321774205328
 20
199.062523142489
 30
0.0
 41
1.0
 10
-25.7682872730504
 20
199.752182643103
 30
0.0
 41
1.0
 10
-25.5968185208773
 20
200.441399934029
 30
0.0
 41
1.0
 10
-25.4179473078808
 20
201.130138016167
 30
0.0
 41
1.0
 10
-25.2319924158283
 20
201.81835383609
 30
0.0
 41
1.0
 10
-25.039330094597
 20
202.506002444241
 30
0.0
 41
1.0
 10
-24.8403015981121
 20
203.193041529461
 30
0.0
 41
1.0
 10
-24.6351109519023
 20
203.879436444019
 30
0.0
 41
1.0
 10
-24.4238471836018
 20
204.565159021074
 30
0.0
 41
1.0
 10
-24.2065302490647
 20
205.250185214284
 30
0.0
 41
1.0
 10
-23.9831492273497
 20
205.934493129178
 30
0.0
 41
1.0
 10
-23.7537022300772
 20
206.618060975168
 30
0.0
 41
1.0
 10
-23.5182396753024
 20
207.300864854119
 30
0.0
 41
1.0
 10
-23.2768526092233
 20
207.982879313604
 30
0.0
 41
1.0
 10
-23.0296546167739
 20
208.664078227658
 30
0.0
 41
1.0
 10
-22.7767658741853
 20
209.344435576799
 30
0.0
 41
1.0
 10
-22.518296909726
 20
210.023926247394
 30
0.0
 41
1.0
 10
-22.2543310465696
 20
210.702526907354
 30
0.0
 41
1.0
 10
-21.9849299563366
 20
211.380215677519
 30
0.0
 41
1.0
 10
-21.7101414428645
 20
212.056971693065
 30
0.0
 41
1.0
 10
-21.4300065639227
 20
212.732774705592
 30
0.0
 41
1.0
 10
-21.144566771382
 20
213.407604691881
 30
0.0
 41
1.0
 10
-20.853871848158
 20
214.081441424966
 30
0.0
 41
1.0
 10
-20.5579778211872
 20
214.754264602929
 30
0.0
 41
1.0
 10
-20.2569437115011
 20
215.426054046677
 30
0.0
 41
1.0
 10
-19.9508286688853
 20
216.096789887615
 30
0.0
 41
1.0
 10
-19.6396891500463
 20
216.766452750894
 30
0.0
 41
1.0
 10
-19.3235756786494
 20
217.435023992526
 30
0.0
 41
1.0
 10
-19.0025336629965
 20
218.102485539869
 30
0.0
 41
1.0
 10
-18.6766050098986
 20
218.768819665234
 30
0.0
 41
1.0
 10
-18.3458295446668
 20
219.434008779654
 30
0.0
 41
1.0
 10
-18.0102464233154
 20
220.098035252481
 30
0.0
 41
1.0
 10
-17.6698958948987
 20
220.760881162708
 30
0.0
 41
1.0
 10
-17.3248190197678
 20
221.422528488466
 30
0.0
 41
1.0
 10
-16.9750567063365
 20
222.082959437447
 30
0.0
 41
1.0
 10
-16.6206489641961
 20
222.742156767036
 30
0.0
 41
1.0
 10
-16.2616341948277
 20
223.400104056148
 30
0.0
 41
1.0
 10
-15.8980482638235
 20
224.056786162913
 30
0.0
 41
1.0
 10
-15.5299247745026
 20
224.712188905818
 30
0.0
 41
1.0
 10
-15.1572961020124
 20
225.36629827724
 30
0.0
 41
1.0
 10
-14.7801942868162
 20
226.01909975603
 30
0.0
 41
1.0
 10
-14.3986518865334
 20
226.670577699987
 30
0.0
 41
1.0
 10
-14.0127032008039
 20
227.320714440698
 30
0.0
 41
1.0
 10
-13.6223841905572
 20
227.969490509425
 30
0.0
 41
1.0
 10
-13.227730682768
 20
228.616886318947
 30
0.0
 41
1.0
 10
-12.8287770121957
 20
229.262883527535
 30
0.0
 41
1.0
 10
-12.4255545655241
 20
229.907466457517
 30
0.0
 41
1.0
 10
-12.0180902782727
 20
230.550623707451
 30
0.0
 41
1.0
 10
-11.6064055435407
 20
231.192349064189
 30
0.0
 41
1.0
 10
-11.1905166030339
 20
231.832639901807
 30
0.0
 41
1.0
 10
-10.8544510890064
 20
232.343724787967
 30
0.0
 41
1.0
 10
-10.6005180695256
 20
232.726393218395
 30
0.0
 41
1.0
 10
-10.4303923859726
 20
232.981218830317
 30
0.0
 41
1.0
 10
-10.3451202932341
 20
233.108559967494
 30
0.0
 41
1.0
  0
LINE
  5
100001C7
102
{ACAD_XDICTIONARY
360
100001C8
102
}
330
1F
100
AcDbEntity
  8
VISIBLE
100
AcDbLine
 10
-23.68564313227555
 20
161.286337284994
 30
0.0
 11
-27.30576265208165
 21
185.948103077312
 31
0.0
  0
ARC
  5
100001CB
102
{ACAD_XDICTIONARY
360
100001CC
102
}
330
1F
100
AcDbEntity
  8
VISIBLE
100
AcDbCircle
 10
-25.2563113107624
 20
161.055777698143
 30
0.0
 40
1.5875
100
AcDbArc
 50
278.9123784019376
 51
8.350852161225472
  0
ARC
  5
100001D1
102
{ACAD_XDICTIONARY
360
100001D2
102
}
330
1F
100
AcDbEntity
  8
VISIBLE
100
AcDbCircle
 10
0.0
 20
0.0
 30
0.0
 40
161.436562
100
AcDbArc
 50
98.9123784019358
 51
111.0876215980643
  0
ARC
  5
100001D7
102
{ACAD_XDICTIONARY
360
100001D8
102
}
330
1F
100
AcDbEntity
  8
VISIBLE
100
AcDbCircle
 10
-58.65528164806319
 20
152.106550568232
 30
0.0
 40
1.5875
100
AcDbArc
 50
201.6491478387968
 51
291.0876215980664
  0
LINE
  5
100001DD
102
{ACAD_XDICTIONARY
360
100001DE
102
}
330
1F
100
AcDbEntity
  8
VISIBLE
100
AcDbLine
 10
-60.13079998497359
 20
151.520886938287
 30
0.0
 11
-69.3265674122448
 21
174.68866237652
 31
0.0
  0
SPLINE
  5
100001E1
102
{ACAD_XDICTIONARY
360
100001E2
102
}
330
1F
100
AcDbEntity
  8
VISIBLE
100
AcDbSpline
210
0.0
220
0.0
230
1.0
 70
    12
 71
     5
 72
    81
 73
    75
 74
     0
 42
0.0000000001
 43
0.00000001
 40
0.0
 40
0.0
 40
0.0
 40
0.0
 40
0.0
 40
0.0
 40
0.0142857142857143
 40
0.0285714285714286
 40
0.0428571428571429
 40
0.0571428571428571
 40
0.0714285714285714
 40
0.0857142857142857
 40
0.1
 40
0.114285714285714
 40
0.128571428571429
 40
0.142857142857143
 40
0.157142857142857
 40
0.171428571428571
 40
0.185714285714286
 40
0.2
 40
0.214285714285714
 40
0.228571428571429
 40
0.242857142857143
 40
0.257142857142857
 40
0.271428571428571
 40
0.285714285714286
 40
0.3
 40
0.314285714285714
 40
0.328571428571429
 40
0.342857142857143
 40
0.357142857142857
 40
0.371428571428571
 40
0.385714285714286
 40
0.4
 40
0.414285714285714
 40
0.428571428571429
 40
0.442857142857143
 40
0.457142857142857
 40
0.471428571428572
 40
0.485714285714286
 40
0.5
 40
0.514285714285714
 40
0.528571428571429
 40
0.542857142857143
 40
0.5571428571428569
 40
0.571428571428571
 40
0.585714285714286
 40
0.6
 40
0.614285714285714
 40
0.628571428571428
 40
0.642857142857142
 40
0.6571428571428569
 40
0.6714285714285709
 40
0.6857142857142849
 40
0.7
 40
0.714285714285714
 40
0.728571428571428
 40
0.742857142857142
 40
0.7571428571428559
 40
0.7714285714285709
 40
0.7857142857142849
 40
0.8
 40
0.8142857142857131
 40
0.8285714285714281
 40
0.842857142857142
 40
0.857142857142856
 40
0.87142857142857
 40
0.885714285714284
 40
0.9
 40
0.914285714285713
 40
0.928571428571427
 40
0.9428571428571411
 40
0.957142857142856
 40
0.97142857142857
 40
0.985714285714284
 40
1.0
 40
1.0
 40
1.0
 40
1.0
 40
1.0
 40
1.0
 10
-69.326567412245
 20
174.68866237652
 30
0.0
 41
1.0
 10
-69.37737126876779
 20
174.816657386031
 30
0.0
 41
1.0
 10
-69.48299007082129
 20
175.070683789204
 30
0.0
 41
1.0
 10
-69.653451237047
 20
175.445832697714
 30
0.0
 41
1.0
 10
-69.90355812072869
 20
175.934858552204
 30
0.0
 41
1.0
 10
-70.24707406780401
 20
176.531024870733
 30
0.0
 41
1.0
 10
-70.6124685194066
 20
177.116468815034
 30
0.0
 41
1.0
 10
-70.9909666438704
 20
177.695447977381
 30
0.0
 41
1.0
 10
-71.37641293445989
 20
178.270901333156
 30
0.0
 41
1.0
 10
-71.76672426623841
 20
178.84373342042
 30
0.0
 41
1.0
 10
-72.16235947936781
 20
179.413583916582
 30
0.0
 41
1.0
 10
-72.56525189612499
 20
179.979367130727
 30
0.0
 41
1.0
 10
-72.97765141435669
 20
180.539855536996
 30
0.0
 41
1.0
 10
-73.4007904904265
 20
181.09435343845
 30
0.0
 41
1.0
 10
-73.8344260818275
 20
181.642926036994
 30
0.0
 41
1.0
 10
-74.2775060631483
 20
182.186058424239
 30
0.0
 41
1.0
 10
-74.7285628729243
 20
182.72445274371
 30
0.0
 41
1.0
 10
-75.186178296567
 20
183.258789585448
 30
0.0
 41
1.0
 10
-75.6495146912442
 20
183.789455000558
 30
0.0
 41
1.0
 10
-76.118359750271
 20
184.316517184269
 30
0.0
 41
1.0
 10
-76.5928587764579
 20
184.83986340519
 30
0.0
 41
1.0
 10
-77.073337149618
 20
185.35929069309
 30
0.0
 41
1.0
 10
-77.5600999310746
 20
185.874608266841
 30
0.0
 41
1.0
 10
-78.0532048718751
 20
186.385753573425
 30
0.0
 41
1.0
 10
-78.55248092740449
 20
186.892782642611
 30
0.0
 41
1.0
 10
-79.05763049784169
 20
187.395817579925
 30
0.0
 41
1.0
 10
-79.56830526645548
 20
187.895007582845
 30
0.0
 41
1.0
 10
-80.0841885430983
 20
188.390486635796
 30
0.0
 41
1.0
 10
-80.6050863126141
 20
188.882326745727
 30
0.0
 41
1.0
 10
-81.1309073913892
 20
189.370548033255
 30
0.0
 41
1.0
 10
-81.6616224739755
 20
189.855139651563
 30
0.0
 41
1.0
 10
-82.19723007095129
 20
190.336077179015
 30
0.0
 41
1.0
 10
-82.73772092240631
 20
190.813340800216
 30
0.0
 41
1.0
 10
-83.28303941595689
 20
191.286935027803
 30
0.0
 41
1.0
 10
-83.8330939770684
 20
191.756883342425
 30
0.0
 41
1.0
 10
-84.38777317532119
 20
192.223219910802
 30
0.0
 41
1.0
 10
-84.9469599253046
 20
192.685982287515
 30
0.0
 41
1.0
 10
-85.5105459499136
 20
193.145203987655
 30
0.0
 41
1.0
 10
-86.0784474231191
 20
193.600906466627
 30
0.0
 41
1.0
 10
-86.6505999961507
 20
194.053101612333
 30
0.0
 41
1.0
 10
-87.2269518372589
 20
194.501795257224
 30
0.0
 41
1.0
 10
-87.807457265172
 20
194.946990394556
 30
0.0
 41
1.0
 10
-88.3920703699074
 20
195.388690409647
 30
0.0
 41
1.0
 10
-88.9807379247133
 20
195.82690267689
 30
0.0
 41
1.0
 10
-89.57340125787961
 20
196.261637627776
 30
0.0
 41
1.0
 10
-90.1699991661471
 20
196.692907297212
 30
0.0
 41
1.0
 10
-90.770470490002
 20
197.120724053385
 30
0.0
 41
1.0
 10
-91.3747566490777
 20
197.545099345537
 30
0.0
 41
1.0
 10
-91.9828045666018
 20
197.966042289331
 30
0.0
 41
1.0
 10
-92.5945658815105
 20
198.383559937553
 30
0.0
 41
1.0
 10
-93.2099954375971
 20
198.797657890978
 30
0.0
 41
1.0
 10
-93.8290499506468
 20
199.208340829772
 30
0.0
 41
1.0
 10
-94.4516866952316
 20
199.615613063349
 30
0.0
 41
1.0
 10
-95.0778618541455
 20
200.019479196192
 30
0.0
 41
1.0
 10
-95.70753085714661
 20
200.419944151079
 30
0.0
 41
1.0
 10
-96.3406493803549
 20
200.817012973627
 30
0.0
 41
1.0
 10
-96.9771741531408
 20
201.210690736087
 30
0.0
 41
1.0
 10
-97.61706370830372
 20
201.600982418125
 30
0.0
 41
1.0
 10
-98.26027941439419
 20
201.987892839292
 30
0.0
 41
1.0
 10
-98.9067850793286
 20
202.371426519697
 30
0.0
 41
1.0
 10
-99.5565456615944
 20
202.751587515957
 30
0.0
 41
1.0
 10
-100.209526152763
 20
203.12837927262
 30
0.0
 41
1.0
 10
-100.865690536007
 20
203.50180452195
 30
0.0
 41
1.0
 10
-101.525000272761
 20
203.871865112474
 30
0.0
 41
1.0
 10
-102.187414485579
 20
204.238562164236
 30
0.0
 41
1.0
 10
-102.852892353778
 20
204.601896627691
 30
0.0
 41
1.0
 10
-103.52139497172
 20
204.961869785816
 30
0.0
 41
1.0
 10
-104.192887318905
 20
205.31848375469
 30
0.0
 41
1.0
 10
-104.867340367767
 20
205.671742128135
 30
0.0
 41
1.0
 10
-105.544732484764
 20
206.021650221957
 30
0.0
 41
1.0
 10
-106.225048291205
 20
206.368213882892
 30
0.0
 41
1.0
 10
-106.771632006768
 20
206.642793620782
 30
0.0
 41
1.0
 10
-107.182878667712
 20
206.847227693019
 30
0.0
 41
1.0
 10
-107.457624637467
 20
206.982850304702
 30
0.0
 41
1.0
 10
-107.5951430046
 20
207.050494918075
 30
0.0
 41
1.0
  0
ARC
  5
100001E5
102
{ACAD_XDICTIONARY
360
100001E6
102
}
330
1F
100
AcDbEntity
  8
VISIBLE
100
AcDbCircle
 10
-0.0000000000049027
 20
0.0000000000084918
 30
0.0
 40
233.33799999999
100
AcDbArc
 50
117.4589390306315
 51
122.5410609693687
  0
SPLINE
  5
100001EB
102
{ACAD_XDICTIONARY
360
100001EC
102
}
330
1F
100
AcDbEntity
  8
VISIBLE
100
AcDbSpline
210
0.0
220
0.0
230
1.0
 70
    12
 71
     5
 72
    81
 73
    75
 74
     0
 42
0.0000000001
 43
0.00000001
 40
0.0
 40
0.0
 40
0.0
 40
0.0
 40
0.0
 40
0.0
 40
0.0142857142857143
 40
0.0285714285714286
 40
0.0428571428571429
 40
0.0571428571428571
 40
0.0714285714285714
 40
0.0857142857142857
 40
0.1
 40
0.114285714285714
 40
0.128571428571429
 40
0.142857142857143
 40
0.157142857142857
 40
0.171428571428571
 40
0.185714285714286
 40
0.2
 40
0.214285714285714
 40
0.228571428571429
 40
0.242857142857143
 40
0.257142857142857
 40
0.271428571428571
 40
0.285714285714286
 40
0.3
 40
0.314285714285714
 40
0.328571428571429
 40
0.342857142857143
 40
0.357142857142857
 40
0.371428571428571
 40
0.385714285714286
 40
0.4
 40
0.414285714285714
 40
0.428571428571429
 40
0.442857142857143
 40
0.457142857142857
 40
0.471428571428572
 40
0.485714285714286
 40
0.5
 40
0.514285714285714
 40
0.528571428571429
 40
0.542857142857143
 40
0.5571428571428569
 40
0.571428571428571
 40
0.585714285714286
 40
0.6
 40
0.614285714285714
 40
0.628571428571428
 40
0.642857142857142
 40
0.6571428571428569
 40
0.6714285714285709
 40
0.6857142857142849
 40
0.7
 40
0.714285714285714
 40
0.728571428571428
 40
0.742857142857142
 40
0.7571428571428559
 40
0.7714285714285709
 40
0.7857142857142849
 40
0.8
 40
0.8142857142857131
 40
0.8285714285714281
 40
0.842857142857142
 40
0.857142857142856
 40
0.87142857142857
 40
0.885714285714284
 40
0.9
 40
0.914285714285713
 40
0.928571428571427
 40
0.9428571428571411
 40
0.957142857142856
 40
0.97142857142857
 40
0.985714285714284
 40
1.0
 40
1.0
 40
1.0
 40
1.0
 40
1.0
 40
1.0
 10
-116.621535665067
 20
147.382899724439
 30
0.0
 41
1.0
 10
-116.7069806666
 20
147.490894659553
 30
0.0
 41
1.0
 10
-116.874164583953
 20
147.709376426835
 30
0.0
 41
1.0
 10
-117.113822485812
 20
148.0445745814
 30
0.0
 41
1.0
 10
-117.412277857066
 20
148.505686423575
 30
0.0
 41
1.0
 10
-117.756815060256
 20
149.101263119612
 30
0.0
 41
1.0
 10
-118.08112716271
 20
149.710425969252
 30
0.0
 41
1.0
 10
-118.393288763333
 20
150.327704541496
 30
0.0
 41
1.0
 10
-118.698922842832
 20
150.949237498828
 30
0.0
 41
1.0
 10
-118.999854316616
 20
151.573673071165
 30
0.0
 41
1.0
 10
-119.295541716087
 20
152.201228464448
 30
0.0
 41
1.0
 10
-119.584078144193
 20
152.833035139424
 30
0.0
 41
1.0
 10
-119.863275583433
 20
153.470427801856
 30
0.0
 41
1.0
 10
-120.131915314402
 20
154.114125941793
 30
0.0
 41
1.0
 10
-120.390175324861
 20
154.763951679204
 30
0.0
 41
1.0
 10
-120.639001779173
 20
155.419236392559
 30
0.0
 41
1.0
 10
-120.8797365322
 20
156.07906020811
 30
0.0
 41
1.0
 10
-121.113678099502
 20
156.742535211017
 30
0.0
 41
1.0
 10
-121.341579632558
 20
157.409129006861
 30
0.0
 41
1.0
 10
-121.563606343513
 20
158.078691830272
 30
0.0
 41
1.0
 10
-121.779587952711
 20
158.751293151481
 30
0.0
 41
1.0
 10
-121.989185992871
 20
159.427113272557
 30
0.0
 41
1.0
 10
-122.192082712028
 20
160.106320993791
 30
0.0
 41
1.0
 10
-122.388195062154
 20
160.788935052547
 30
0.0
 41
1.0
 10
-122.577657088762
 20
161.47483533473
 30
0.0
 41
1.0
 10
-122.760723338249
 20
162.163825164097
 30
0.0
 41
1.0
 10
-122.937697177786
 20
162.855677488248
 30
0.0
 41
1.0
 10
-123.108852986363
 20
163.550185037683
 30
0.0
 41
1.0
 10
-123.274350131405
 20
164.247215793824
 30
0.0
 41
1.0
 10
-123.434251629685
 20
164.946700849653
 30
0.0
 41
1.0
 10
-123.588562740308
 20
165.648609402498
 30
0.0
 41
1.0
 10
-123.737263058227
 20
166.352927951665
 30
0.0
 41
1.0
 10
-123.880340052762
 20
167.059638570139
 30
0.0
 41
1.0
 10
-124.017825438163
 20
167.768695352501
 30
0.0
 41
1.0
 10
-124.149785336535
 20
168.480030733202
 30
0.0
 41
1.0
 10
-124.276305052337
 20
169.193565294028
 30
0.0
 41
1.0
 10
-124.397475651494
 20
169.90921641333
 30
0.0
 41
1.0
 10
-124.51338029748
 20
170.626907077929
 30
0.0
 41
1.0
 10
-124.624079484235
 20
171.346575420058
 30
0.0
 41
1.0
 10
-124.729615681369
 20
172.068171655997
 30
0.0
 41
1.0
 10
-124.830019855807
 20
172.79165381436
 30
0.0
 41
1.0
 10
-124.925317440421
 20
173.516983830633
 30
0.0
 41
1.0
 10
-125.015534321974
 20
174.244123638265
 30
0.0
 41
1.0
 10
-125.100703500253
 20
174.973030828732
 30
0.0
 41
1.0
 10
-125.18086334505
 20
175.703659806588
 30
0.0
 41
1.0
 10
-125.25605488053
 20
176.435963585711
 30
0.0
 41
1.0
 10
-125.326319397613
 20
177.1698953845
 30
0.0
 41
1.0
 10
-125.391696101817
 20
177.905410195491
 30
0.0
 41
1.0
 10
-125.452219425925
 20
178.642466610682
 30
0.0
 41
1.0
 10
-125.507919658358
 20
179.381026274556
 30
0.0
 41
1.0
 10
-125.558824227637
 20
180.12105288108
 30
0.0
 41
1.0
 10
-125.604958829008
 20
180.862511285105
 30
0.0
 41
1.0
 10
-125.646348557249
 20
181.605366640034
 30
0.0
 41
1.0
 10
-125.683019308563
 20
182.349583301293
 30
0.0
 41
1.0
 10
-125.71499763132
 20
183.095125131312
 30
0.0
 41
1.0
 10
-125.742310057093
 20
183.84195626729
 30
0.0
 41
1.0
 10
-125.764982613895
 20
184.590041771891
 30
0.0
 41
1.0
 10
-125.783040347845
 20
185.339348223297
 30
0.0
 41
1.0
 10
-125.796506748519
 20
186.089844575468
 30
0.0
 41
1.0
 10
-125.805403826489
 20
186.841501745195
 30
0.0
 41
1.0
 10
-125.809752615645
 20
187.594291413945
 30
0.0
 41
1.0
 10
-125.809573603268
 20
188.348184985803
 30
0.0
 41
1.0
 10
-125.80488716398
 20
189.103152635417
 30
0.0
 41
1.0
 10
-125.795714167937
 20
189.85916191167
 30
0.0
 41
1.0
 10
-125.782076023847
 20
190.616177973679
 30
0.0
 41
1.0
 10
-125.763993965169
 20
191.374165944923
 30
0.0
 41
1.0
 10
-125.741488555815
 20
192.13309277362
 30
0.0
 41
1.0
 10
-125.714579138612
 20
192.892929189166
 30
0.0
 41
1.0
 10
-125.683283339684
 20
193.653651849863
 30
0.0
 41
1.0
 10
-125.647616579425
 20
194.415244678417
 30
0.0
 41
1.0
 10
-125.607591610603
 20
195.177697279858
 30
0.0
 41
1.0
 10
-125.572092781199
 20
195.788342531776
 30
0.0
 41
1.0
 10
-125.543514550683
 20
196.246709623494
 30
0.0
 41
1.0
 10
-125.523594192851
 20
196.55245791873
 30
0.0
 41
1.0
 10
-125.513416962894
 20
196.705374624841
 30
0.0
 41
1.0
  0
LINE
  5
100001EF
102
{ACAD_XDICTIONARY
360
100001F0
102
}
330
1F
100
AcDbEntity
  8
VISIBLE
100
AcDbLine
 10
-101.1555373000202
 20
127.8352438060118
 30
0.0
 11
-116.6215356650674
 21
147.3828997244386
 31
0.0
  0
ARC
  5
100001F3
102
{ACAD_XDICTIONARY
360
100001F4
102
}
330
1F
100
AcDbEntity
  8
VISIBLE
100
AcDbCircle
 10
-102.40049605008
 20
126.85023925747
 30
0.0
 40
1.5875
100
AcDbArc
 50
308.9123784019277
 51
38.35085216120707
  0
ARC
  5
100001F9
102
{ACAD_XDICTIONARY
360
100001FA
102
}
330
1F
100
AcDbEntity
  8
VISIBLE
100
AcDbCircle
 10
0.0
 20
0.0
 30
0.0
 40
161.436562
100
AcDbArc
 50
128.9123784019359
 51
141.0876215980644
  0
ARC
  5
100001FF
102
{ACAD_XDICTIONARY
360
10000200
102
}
330
1F
100
AcDbEntity
  8
VISIBLE
100
AcDbCircle
 10
-126.85023925747
 20
102.40049605008
 30
0.0
 40
1.5875
100
AcDbArc
 50
231.6491478387929
 51
321.0876215980464
  0
LINE
  5
10000205
102
{ACAD_XDICTIONARY
360
10000206
102
}
330
1F
100
AcDbEntity
  8
VISIBLE
100
AcDbLine
 10
-127.8352438060122
 20
101.1555373000196
 30
0.0
 11
-147.382899724439
 21
116.621535665067
 31
0.0
  0
SPLINE
  5
10000209
102
{ACAD_XDICTIONARY
360
1000020A
102
}
330
1F
100
AcDbEntity
  8
VISIBLE
100
AcDbSpline
210
0.0
220
0.0
230
1.0
 70
    12
 71
     5
 72
    81
 73
    75
 74
     0
 42
0.0000000001
 43
0.00000001
 40
0.0
 40
0.0
 40
0.0
 40
0.0
 40
0.0
 40
0.0
 40
0.0142857142857143
 40
0.0285714285714286
 40
0.0428571428571429
 40
0.0571428571428571
 40
0.0714285714285714
 40
0.0857142857142857
 40
0.1
 40
0.114285714285714
 40
0.128571428571429
 40
0.142857142857143
 40
0.157142857142857
 40
0.171428571428571
 40
0.185714285714286
 40
0.2
 40
0.214285714285714
 40
0.228571428571429
 40
0.242857142857143
 40
0.257142857142857
 40
0.271428571428571
 40
0.285714285714286
 40
0.3
 40
0.314285714285714
 40
0.328571428571429
 40
0.342857142857143
 40
0.357142857142857
 40
0.371428571428571
 40
0.385714285714286
 40
0.4
 40
0.414285714285714
 40
0.428571428571429
 40
0.442857142857143
 40
0.457142857142857
 40
0.471428571428572
 40
0.485714285714286
 40
0.5
 40
0.514285714285714
 40
0.528571428571429
 40
0.542857142857143
 40
0.5571428571428569
 40
0.571428571428571
 40
0.585714285714286
 40
0.6
 40
0.614285714285714
 40
0.628571428571428
 40
0.642857142857142
 40
0.6571428571428569
 40
0.6714285714285709
 40
0.6857142857142849
 40
0.7
 40
0.714285714285714
 40
0.728571428571428
 40
0.742857142857142
 40
0.7571428571428559
 40
0.7714285714285709
 40
0.7857142857142849
 40
0.8
 40
0.8142857142857131
 40
0.8285714285714281
 40
0.842857142857142
 40
0.857142857142856
 40
0.87142857142857
 40
0.885714285714284
 40
0.9
 40
0.914285714285713
 40
0.928571428571427
 40
0.9428571428571411
 40
0.957142857142856
 40
0.97142857142857
 40
0.985714285714284
 40
1.0
 40
1.0
 40
1.0
 40
1.0
 40
1.0
 40
1.0
 10
-147.382899724439
 20
116.621535665067
 30
0.0
 41
1.0
 10
-147.490894659553
 20
116.7069806666
 30
0.0
 41
1.0
 10
-147.709376426835
 20
116.874164583952
 30
0.0
 41
1.0
 10
-148.0445745814
 20
117.113822485811
 30
0.0
 41
1.0
 10
-148.505686423575
 20
117.412277857066
 30
0.0
 41
1.0
 10
-149.101263119612
 20
117.756815060255
 30
0.0
 41
1.0
 10
-149.710425969252
 20
118.08112716271
 30
0.0
 41
1.0
 10
-150.327704541496
 20
118.393288763333
 30
0.0
 41
1.0
 10
-150.949237498828
 20
118.698922842832
 30
0.0
 41
1.0
 10
-151.573673071165
 20
118.999854316616
 30
0.0
 41
1.0
 10
-152.201228464448
 20
119.295541716087
 30
0.0
 41
1.0
 10
-152.833035139425
 20
119.584078144193
 30
0.0
 41
1.0
 10
-153.470427801856
 20
119.863275583433
 30
0.0
 41
1.0
 10
-154.114125941793
 20
120.131915314402
 30
0.0
 41
1.0
 10
-154.763951679204
 20
120.390175324861
 30
0.0
 41
1.0
 10
-155.419236392559
 20
120.639001779173
 30
0.0
 41
1.0
 10
-156.07906020811
 20
120.8797365322
 30
0.0
 41
1.0
 10
-156.742535211017
 20
121.113678099501
 30
0.0
 41
1.0
 10
-157.409129006861
 20
121.341579632558
 30
0.0
 41
1.0
 10
-158.078691830272
 20
121.563606343513
 30
0.0
 41
1.0
 10
-158.751293151481
 20
121.779587952711
 30
0.0
 41
1.0
 10
-159.427113272557
 20
121.989185992871
 30
0.0
 41
1.0
 10
-160.106320993791
 20
122.192082712028
 30
0.0
 41
1.0
 10
-160.788935052547
 20
122.388195062154
 30
0.0
 41
1.0
 10
-161.47483533473
 20
122.577657088762
 30
0.0
 41
1.0
 10
-162.163825164097
 20
122.760723338249
 30
0.0
 41
1.0
 10
-162.855677488248
 20
122.937697177786
 30
0.0
 41
1.0
 10
-163.550185037683
 20
123.108852986363
 30
0.0
 41
1.0
 10
-164.247215793824
 20
123.274350131405
 30
0.0
 41
1.0
 10
-164.946700849653
 20
123.434251629685
 30
0.0
 41
1.0
 10
-165.648609402499
 20
123.588562740308
 30
0.0
 41
1.0
 10
-166.352927951665
 20
123.737263058227
 30
0.0
 41
1.0
 10
-167.059638570139
 20
123.880340052762
 30
0.0
 41
1.0
 10
-167.768695352501
 20
124.017825438163
 30
0.0
 41
1.0
 10
-168.480030733202
 20
124.149785336535
 30
0.0
 41
1.0
 10
-169.193565294028
 20
124.276305052337
 30
0.0
 41
1.0
 10
-169.90921641333
 20
124.397475651494
 30
0.0
 41
1.0
 10
-170.626907077929
 20
124.51338029748
 30
0.0
 41
1.0
 10
-171.346575420058
 20
124.624079484235
 30
0.0
 41
1.0
 10
-172.068171655997
 20
124.729615681368
 30
0.0
 41
1.0
 10
-172.79165381436
 20
124.830019855807
 30
0.0
 41
1.0
 10
-173.516983830633
 20
124.92531744042
 30
0.0
 41
1.0
 10
-174.244123638265
 20
125.015534321974
 30
0.0
 41
1.0
 10
-174.973030828732
 20
125.100703500253
 30
0.0
 41
1.0
 10
-175.703659806588
 20
125.18086334505
 30
0.0
 41
1.0
 10
-176.435963585711
 20
125.25605488053
 30
0.0
 41
1.0
 10
-177.1698953845
 20
125.326319397613
 30
0.0
 41
1.0
 10
-177.905410195491
 20
125.391696101817
 30
0.0
 41
1.0
 10
-178.642466610682
 20
125.452219425925
 30
0.0
 41
1.0
 10
-179.381026274556
 20
125.507919658358
 30
0.0
 41
1.0
 10
-180.12105288108
 20
125.558824227637
 30
0.0
 41
1.0
 10
-180.862511285105
 20
125.604958829008
 30
0.0
 41
1.0
 10
-181.605366640034
 20
125.646348557249
 30
0.0
 41
1.0
 10
-182.349583301293
 20
125.683019308563
 30
0.0
 41
1.0
 10
-183.095125131312
 20
125.71499763132
 30
0.0
 41
1.0
 10
-183.84195626729
 20
125.742310057092
 30
0.0
 41
1.0
 10
-184.590041771891
 20
125.764982613895
 30
0.0
 41
1.0
 10
-185.339348223297
 20
125.783040347844
 30
0.0
 41
1.0
 10
-186.089844575468
 20
125.796506748518
 30
0.0
 41
1.0
 10
-186.841501745195
 20
125.805403826489
 30
0.0
 41
1.0
 10
-187.594291413945
 20
125.809752615645
 30
0.0
 41
1.0
 10
-188.348184985803
 20
125.809573603268
 30
0.0
 41
1.0
 10
-189.103152635417
 20
125.80488716398
 30
0.0
 41
1.0
 10
-189.85916191167
 20
125.795714167936
 30
0.0
 41
1.0
 10
-190.616177973679
 20
125.782076023847
 30
0.0
 41
1.0
 10
-191.374165944923
 20
125.763993965169
 30
0.0
 41
1.0
 10
-192.13309277362
 20
125.741488555815
 30
0.0
 41
1.0
 10
-192.892929189166
 20
125.714579138612
 30
0.0
 41
1.0
 10
-193.653651849863
 20
125.683283339684
 30
0.0
 41
1.0
 10
-194.415244678417
 20
125.647616579425
 30
0.0
 41
1.0
 10
-195.177697279858
 20
125.607591610602
 30
0.0
 41
1.0
 10
-195.788342531776
 20
125.572092781198
 30
0.0
 41
1.0
 10
-196.246709623494
 20
125.543514550683
 30
0.0
 41
1.0
 10
-196.55245791873
 20
125.523594192851
 30
0.0
 41
1.0
 10
-196.705374624841
 20
125.513416962893
 30
0.0
 41
1.0
  0
ARC
  5
1000020D
102
{ACAD_XDICTIONARY
360
1000020E
102
}
330
1F
100
AcDbEntity
  8
VISIBLE
100
AcDbCircle
 10
-0.0000000000084918
 20
0.0000000000049027
 30
0.0
 40
233.33799999999
100
AcDbArc
 50
147.4589390306316
 51
152.5410609693686
  0
SPLINE
  5
10000213
102
{ACAD_XDICTIONARY
360
10000214
102
}
330
1F
100
AcDbEntity
  8
VISIBLE
100
AcDbSpline
210
0.0
220
0.0
230
1.0
 70
    12
 71
     5
 72
    81
 73
    75
 74
     0
 42
0.0000000001
 43
0.00000001
 40
0.0
 40
0.0
 40
0.0
 40
0.0
 40
0.0
 40
0.0
 40
0.0142857142857143
 40
0.0285714285714286
 40
0.0428571428571429
 40
0.0571428571428571
 40
0.0714285714285714
 40
0.0857142857142857
 40
0.1
 40
0.114285714285714
 40
0.128571428571429
 40
0.142857142857143
 40
0.157142857142857
 40
0.171428571428571
 40
0.185714285714286
 40
0.2
 40
0.214285714285714
 40
0.228571428571429
 40
0.242857142857143
 40
0.257142857142857
 40
0.271428571428571
 40
0.285714285714286
 40
0.3
 40
0.314285714285714
 40
0.328571428571429
 40
0.342857142857143
 40
0.357142857142857
 40
0.371428571428571
 40
0.385714285714286
 40
0.4
 40
0.414285714285714
 40
0.428571428571429
 40
0.442857142857143
 40
0.457142857142857
 40
0.471428571428572
 40
0.485714285714286
 40
0.5
 40
0.514285714285714
 40
0.528571428571429
 40
0.542857142857143
 40
0.5571428571428569
 40
0.571428571428571
 40
0.585714285714286
 40
0.6
 40
0.614285714285714
 40
0.628571428571428
 40
0.642857142857142
 40
0.6571428571428569
 40
0.6714285714285709
 40
0.6857142857142849
 40
0.7
 40
0.714285714285714
 40
0.728571428571428
 40
0.742857142857142
 40
0.7571428571428559
 40
0.7714285714285709
 40
0.7857142857142849
 40
0.8
 40
0.8142857142857131
 40
0.8285714285714281
 40
0.842857142857142
 40
0.857142857142856
 40
0.87142857142857
 40
0.885714285714284
 40
0.9
 40
0.914285714285713
 40
0.928571428571427
 40
0.9428571428571411
 40
0.957142857142856
 40
0.97142857142857
 40
0.985714285714284
 40
1.0
 40
1.0
 40
1.0
 40
1.0
 40
1.0
 40
1.0
 10
-174.68866237652
 20
69.3265674122449
 30
0.0
 41
1.0
 10
-174.816657386032
 20
69.37737126876769
 30
0.0
 41
1.0
 10
-175.070683789204
 20
69.48299007082109
 30
0.0
 41
1.0
 10
-175.445832697714
 20
69.6534512370468
 30
0.0
 41
1.0
 10
-175.934858552204
 20
69.9035581207286
 30
0.0
 41
1.0
 10
-176.531024870733
 20
70.24707406780391
 30
0.0
 41
1.0
 10
-177.116468815034
 20
70.6124685194065
 30
0.0
 41
1.0
 10
-177.695447977381
 20
70.9909666438702
 30
0.0
 41
1.0
 10
-178.270901333156
 20
71.37641293445971
 30
0.0
 41
1.0
 10
-178.84373342042
 20
71.7667242662382
 30
0.0
 41
1.0
 10
-179.413583916582
 20
72.1623594793676
 30
0.0
 41
1.0
 10
-179.979367130727
 20
72.56525189612489
 30
0.0
 41
1.0
 10
-180.539855536996
 20
72.9776514143565
 30
0.0
 41
1.0
 10
-181.09435343845
 20
73.4007904904264
 30
0.0
 41
1.0
 10
-181.642926036994
 20
73.83442608182729
 30
0.0
 41
1.0
 10
-182.186058424239
 20
74.2775060631482
 30
0.0
 41
1.0
 10
-182.72445274371
 20
74.72856287292419
 30
0.0
 41
1.0
 10
-183.258789585448
 20
75.1861782965669
 30
0.0
 41
1.0
 10
-183.789455000558
 20
75.6495146912441
 30
0.0
 41
1.0
 10
-184.31651718427
 20
76.1183597502709
 30
0.0
 41
1.0
 10
-184.83986340519
 20
76.5928587764578
 30
0.0
 41
1.0
 10
-185.35929069309
 20
77.0733371496178
 30
0.0
 41
1.0
 10
-185.874608266841
 20
77.5600999310744
 30
0.0
 41
1.0
 10
-186.385753573425
 20
78.05320487187501
 30
0.0
 41
1.0
 10
-186.892782642611
 20
78.5524809274044
 30
0.0
 41
1.0
 10
-187.395817579925
 20
79.0576304978415
 30
0.0
 41
1.0
 10
-187.895007582845
 20
79.5683052664553
 30
0.0
 41
1.0
 10
-188.390486635796
 20
80.0841885430981
 30
0.0
 41
1.0
 10
-188.882326745727
 20
80.60508631261399
 30
0.0
 41
1.0
 10
-189.370548033255
 20
81.13090739138899
 30
0.0
 41
1.0
 10
-189.855139651563
 20
81.66162247397538
 30
0.0
 41
1.0
 10
-190.336077179015
 20
82.19723007095111
 30
0.0
 41
1.0
 10
-190.813340800216
 20
82.73772092240611
 30
0.0
 41
1.0
 10
-191.286935027803
 20
83.2830394159568
 30
0.0
 41
1.0
 10
-191.756883342425
 20
83.8330939770683
 30
0.0
 41
1.0
 10
-192.223219910802
 20
84.38777317532099
 30
0.0
 41
1.0
 10
-192.685982287515
 20
84.9469599253044
 30
0.0
 41
1.0
 10
-193.145203987655
 20
85.5105459499134
 30
0.0
 41
1.0
 10
-193.600906466628
 20
86.07844742311889
 30
0.0
 41
1.0
 10
-194.053101612333
 20
86.6505999961505
 30
0.0
 41
1.0
 10
-194.501795257225
 20
87.2269518372587
 30
0.0
 41
1.0
 10
-194.946990394556
 20
87.80745726517179
 30
0.0
 41
1.0
 10
-195.388690409647
 20
88.3920703699073
 30
0.0
 41
1.0
 10
-195.82690267689
 20
88.9807379247132
 30
0.0
 41
1.0
 10
-196.261637627776
 20
89.5734012578794
 30
0.0
 41
1.0
 10
-196.692907297212
 20
90.1699991661469
 30
0.0
 41
1.0
 10
-197.120724053385
 20
90.7704704900019
 30
0.0
 41
1.0
 10
-197.545099345537
 20
91.3747566490775
 30
0.0
 41
1.0
 10
-197.966042289331
 20
91.9828045666016
 30
0.0
 41
1.0
 10
-198.383559937553
 20
92.5945658815103
 30
0.0
 41
1.0
 10
-198.797657890979
 20
93.20999543759699
 30
0.0
 41
1.0
 10
-199.208340829772
 20
93.8290499506466
 30
0.0
 41
1.0
 10
-199.615613063349
 20
94.4516866952314
 30
0.0
 41
1.0
 10
-200.019479196192
 20
95.0778618541454
 30
0.0
 41
1.0
 10
-200.419944151079
 20
95.7075308571464
 30
0.0
 41
1.0
 10
-200.817012973627
 20
96.3406493803548
 30
0.0
 41
1.0
 10
-201.210690736087
 20
96.9771741531406
 30
0.0
 41
1.0
 10
-201.600982418125
 20
97.6170637083035
 30
0.0
 41
1.0
 10
-201.987892839292
 20
98.26027941439409
 30
0.0
 41
1.0
 10
-202.371426519697
 20
98.9067850793284
 30
0.0
 41
1.0
 10
-202.751587515957
 20
99.5565456615943
 30
0.0
 41
1.0
 10
-203.12837927262
 20
100.209526152763
 30
0.0
 41
1.0
 10
-203.50180452195
 20
100.865690536007
 30
0.0
 41
1.0
 10
-203.871865112474
 20
101.525000272761
 30
0.0
 41
1.0
 10
-204.238562164236
 20
102.187414485579
 30
0.0
 41
1.0
 10
-204.601896627691
 20
102.852892353777
 30
0.0
 41
1.0
 10
-204.961869785816
 20
103.52139497172
 30
0.0
 41
1.0
 10
-205.31848375469
 20
104.192887318905
 30
0.0
 41
1.0
 10
-205.671742128136
 20
104.867340367766
 30
0.0
 41
1.0
 10
-206.021650221957
 20
105.544732484764
 30
0.0
 41
1.0
 10
-206.368213882892
 20
106.225048291205
 30
0.0
 41
1.0
 10
-206.642793620782
 20
106.771632006768
 30
0.0
 41
1.0
 10
-206.847227693019
 20
107.182878667712
 30
0.0
 41
1.0
 10
-206.982850304703
 20
107.457624637467
 30
0.0
 41
1.0
 10
-207.050494918075
 20
107.5951430046
 30
0.0
 41
1.0
  0
LINE
  5
10000217
102
{ACAD_XDICTIONARY
360
10000218
102
}
330
1F
100
AcDbEntity
  8
VISIBLE
100
AcDbLine
 10
-151.520886938288
 20
60.1307999849739
 30
0.0
 11
-174.68866237652
 21
69.3265674122447
 31
0.0
  0
ARC
  5
1000021B
102
{ACAD_XDICTIONARY
360
1000021C
102
}
330
1F
100
AcDbEntity
  8
VISIBLE
100
AcDbCircle
 10
-152.106550568232
 20
58.6552816480631
 30
0.0
 40
1.5875
100
AcDbArc
 50
338.9123784019331
 51
68.35085216124041
  0
ARC
  5
10000221
102
{ACAD_XDICTIONARY
360
10000222
102
}
330
1F
100
AcDbEntity
  8
VISIBLE
100
AcDbCircle
 10
0.0
 20
0.0
 30
0.0
 40
161.436562
100
AcDbArc
 50
158.9123784019357
 51
171.0876215980642
  0
ARC
  5
10000227
102
{ACAD_XDICTIONARY
360
10000228
102
}
330
1F
100
AcDbEntity
  8
VISIBLE
100
AcDbCircle
 10
-161.055777698143
 20
25.2563113107624
 30
0.0
 40
1.5875
100
AcDbArc
 50
261.6491478387745
 51
351.0876215980624
  0
LINE
  5
1000022D
102
{ACAD_XDICTIONARY
360
1000022E
102
}
330
1F
100
AcDbEntity
  8
VISIBLE
100
AcDbLine
 10
-161.286337284994
 20
23.6856431322755
 30
0.0
 11
-185.948103077312
 21
27.3057626520816
 31
0.0
  0
SPLINE
  5
10000231
102
{ACAD_XDICTIONARY
360
10000232
102
}
330
1F
100
AcDbEntity
  8
VISIBLE
100
AcDbSpline
210
0.0
220
0.0
230
1.0
 70
    12
 71
     5
 72
    81
 73
    75
 74
     0
 42
0.0000000001
 43
0.00000001
 40
0.0
 40
0.0
 40
0.0
 40
0.0
 40
0.0
 40
0.0
 40
0.0142857142857143
 40
0.0285714285714286
 40
0.0428571428571429
 40
0.0571428571428571
 40
0.0714285714285714
 40
0.0857142857142857
 40
0.1
 40
0.114285714285714
 40
0.128571428571429
 40
0.142857142857143
 40
0.157142857142857
 40
0.171428571428571
 40
0.185714285714286
 40
0.2
 40
0.214285714285714
 40
0.228571428571429
 40
0.242857142857143
 40
0.257142857142857
 40
0.271428571428571
 40
0.285714285714286
 40
0.3
 40
0.314285714285714
 40
0.328571428571429
 40
0.342857142857143
 40
0.357142857142857
 40
0.371428571428571
 40
0.385714285714286
 40
0.4
 40
0.414285714285714
 40
0.428571428571429
 40
0.442857142857143
 40
0.457142857142857
 40
0.471428571428572
 40
0.485714285714286
 40
0.5
 40
0.514285714285714
 40
0.528571428571429
 40
0.542857142857143
 40
0.5571428571428569
 40
0.571428571428571
 40
0.585714285714286
 40
0.6
 40
0.614285714285714
 40
0.628571428571428
 40
0.642857142857142
 40
0.6571428571428569
 40
0.6714285714285709
 40
0.6857142857142849
 40
0.7
 40
0.714285714285714
 40
0.728571428571428
 40
0.742857142857142
 40
0.7571428571428559
 40
0.7714285714285709
 40
0.7857142857142849
 40
0.8
 40
0.8142857142857131
 40
0.8285714285714281
 40
0.842857142857142
 40
0.857142857142856
 40
0.87142857142857
 40
0.885714285714284
 40
0.9
 40
0.914285714285713
 40
0.928571428571427
 40
0.9428571428571411
 40
0.957142857142856
 40
0.97142857142857
 40
0.985714285714284
 40
1.0
 40
1.0
 40
1.0
 40
1.0
 40
1.0
 40
1.0
 10
-185.948103077312
 20
27.3057626520816
 30
0.0
 41
1.0
 10
-186.084351935368
 20
27.3257627264782
 30
0.0
 41
1.0
 10
-186.357154654774
 20
27.3613073623688
 30
0.0
 41
1.0
 10
-186.767273722858
 20
27.4012581163138
 30
0.0
 41
1.0
 10
-187.315835977795
 20
27.429172128629
 30
0.0
 41
1.0
 10
-188.003889128059
 20
27.4297617511213
 30
0.0
 41
1.0
 10
-188.693595682117
 20
27.4060428457819
 30
0.0
 41
1.0
 10
-189.384255407203
 20
27.3677434358851
 30
0.0
 41
1.0
 10
-190.075335777292
 20
27.3216638343275
 30
0.0
 41
1.0
 10
-190.766578582854
 20
27.2700603492543
 30
0.0
 41
1.0
 10
-191.457901195455
 20
27.2123554521336
 30
0.0
 41
1.0
 10
-192.149330040318
 20
27.1463319913023
 30
0.0
 41
1.0
 10
-192.840926997789
 20
27.0694277351397
 30
0.0
 41
1.0
 10
-193.532705804828
 20
26.9802274966563
 30
0.0
 41
1.0
 10
-194.224601406689
 20
26.8789743577903
 30
0.0
 41
1.0
 10
-194.916507842321
 20
26.7668220316804
 30
0.0
 41
1.0
 10
-195.608299405124
 20
26.6453925355998
 30
0.0
 41
1.0
 10
-196.299856396068
 20
26.5162543744307
 30
0.0
 41
1.0
 10
-196.991094323803
 20
26.3803259936976
 30
0.0
 41
1.0
 10
-197.681966093784
 20
26.2378253539972
 30
0.0
 41
1.0
 10
-198.372446729169
 20
26.0885702537086
 30
0.0
 41
1.0
 10
-199.062523142489
 20
25.9321774205328
 30
0.0
 41
1.0
 10
-199.752182643103
 20
25.7682872730503
 30
0.0
 41
1.0
 10
-200.441399934029
 20
25.5968185208772
 30
0.0
 41
1.0
 10
-201.130138016167
 20
25.4179473078807
 30
0.0
 41
1.0
 10
-201.81835383609
 20
25.2319924158282
 30
0.0
 41
1.0
 10
-202.506002444241
 20
25.0393300945969
 30
0.0
 41
1.0
 10
-203.193041529461
 20
24.8403015981121
 30
0.0
 41
1.0
 10
-203.879436444019
 20
24.6351109519022
 30
0.0
 41
1.0
 10
-204.565159021074
 20
24.4238471836017
 30
0.0
 41
1.0
 10
-205.250185214284
 20
24.2065302490646
 30
0.0
 41
1.0
 10
-205.934493129178
 20
23.9831492273496
 30
0.0
 41
1.0
 10
-206.618060975168
 20
23.7537022300771
 30
0.0
 41
1.0
 10
-207.300864854119
 20
23.5182396753023
 30
0.0
 41
1.0
 10
-207.982879313603
 20
23.2768526092232
 30
0.0
 41
1.0
 10
-208.664078227658
 20
23.0296546167738
 30
0.0
 41
1.0
 10
-209.344435576799
 20
22.7767658741852
 30
0.0
 41
1.0
 10
-210.023926247394
 20
22.518296909726
 30
0.0
 41
1.0
 10
-210.702526907354
 20
22.2543310465696
 30
0.0
 41
1.0
 10
-211.380215677519
 20
21.9849299563365
 30
0.0
 41
1.0
 10
-212.056971693065
 20
21.7101414428644
 30
0.0
 41
1.0
 10
-212.732774705592
 20
21.4300065639226
 30
0.0
 41
1.0
 10
-213.407604691881
 20
21.144566771382
 30
0.0
 41
1.0
 10
-214.081441424966
 20
20.8538718481579
 30
0.0
 41
1.0
 10
-214.754264602929
 20
20.5579778211872
 30
0.0
 41
1.0
 10
-215.426054046677
 20
20.256943711501
 30
0.0
 41
1.0
 10
-216.096789887615
 20
19.9508286688852
 30
0.0
 41
1.0
 10
-216.766452750894
 20
19.6396891500462
 30
0.0
 41
1.0
 10
-217.435023992526
 20
19.3235756786493
 30
0.0
 41
1.0
 10
-218.102485539869
 20
19.0025336629964
 30
0.0
 41
1.0
 10
-218.768819665234
 20
18.6766050098986
 30
0.0
 41
1.0
 10
-219.434008779654
 20
18.3458295446667
 30
0.0
 41
1.0
 10
-220.098035252481
 20
18.0102464233153
 30
0.0
 41
1.0
 10
-220.760881162708
 20
17.6698958948986
 30
0.0
 41
1.0
 10
-221.422528488466
 20
17.3248190197677
 30
0.0
 41
1.0
 10
-222.082959437447
 20
16.9750567063364
 30
0.0
 41
1.0
 10
-222.742156767036
 20
16.620648964196
 30
0.0
 41
1.0
 10
-223.400104056148
 20
16.2616341948276
 30
0.0
 41
1.0
 10
-224.056786162913
 20
15.8980482638234
 30
0.0
 41
1.0
 10
-224.712188905818
 20
15.5299247745025
 30
0.0
 41
1.0
 10
-225.36629827724
 20
15.1572961020123
 30
0.0
 41
1.0
 10
-226.01909975603
 20
14.7801942868161
 30
0.0
 41
1.0
 10
-226.670577699987
 20
14.3986518865333
 30
0.0
 41
1.0
 10
-227.320714440698
 20
14.0127032008038
 30
0.0
 41
1.0
 10
-227.969490509425
 20
13.6223841905572
 30
0.0
 41
1.0
 10
-228.616886318947
 20
13.2277306827679
 30
0.0
 41
1.0
 10
-229.262883527535
 20
12.8287770121957
 30
0.0
 41
1.0
 10
-229.907466457517
 20
12.425554565524
 30
0.0
 41
1.0
 10
-230.550623707451
 20
12.0180902782726
 30
0.0
 41
1.0
 10
-231.192349064189
 20
11.6064055435406
 30
0.0
 41
1.0
 10
-231.832639901807
 20
11.1905166030338
 30
0.0
 41
1.0
 10
-232.343724787967
 20
10.8544510890063
 30
0.0
 41
1.0
 10
-232.726393218395
 20
10.6005180695256
 30
0.0
 41
1.0
 10
-232.981218830317
 20
10.4303923859726
 30
0.0
 41
1.0
 10
-233.108559967494
 20
10.3451202932341
 30
0.0
 41
1.0
  0
ARC
  5
10000235
102
{ACAD_XDICTIONARY
360
10000236
102
}
330
1F
100
AcDbEntity
  8
VISIBLE
100
AcDbCircle
 10
-0.0000000000098055
 20
0.0
 30
0.0
 40
233.33799999999
100
AcDbArc
 50
177.4589390306315
 51
182.5410609693685
  0
SPLINE
  5
1000023B
102
{ACAD_XDICTIONARY
360
1000023C
102
}
330
1F
100
AcDbEntity
  8
VISIBLE
100
AcDbSpline
210
0.0
220
0.0
230
1.0
 70
    12
 71
     5
 72
    81
 73
    75
 74
     0
 42
0.0000000001
 43
0.00000001
 40
0.0
 40
0.0
 40
0.0
 40
0.0
 40
0.0
 40
0.0
 40
0.0142857142857143
 40
0.0285714285714286
 40
0.0428571428571429
 40
0.0571428571428571
 40
0.0714285714285714
 40
0.0857142857142857
 40
0.1
 40
0.114285714285714
 40
0.128571428571429
 40
0.142857142857143
 40
0.157142857142857
 40
0.171428571428571
 40
0.185714285714286
 40
0.2
 40
0.214285714285714
 40
0.228571428571429
 40
0.242857142857143
 40
0.257142857142857
 40
0.271428571428571
 40
0.285714285714286
 40
0.3
 40
0.314285714285714
 40
0.328571428571429
 40
0.342857142857143
 40
0.357142857142857
 40
0.371428571428571
 40
0.385714285714286
 40
0.4
 40
0.414285714285714
 40
0.428571428571429
 40
0.442857142857143
 40
0.457142857142857
 40
0.471428571428572
 40
0.485714285714286
 40
0.5
 40
0.514285714285714
 40
0.528571428571429
 40
0.542857142857143
 40
0.5571428571428569
 40
0.571428571428571
 40
0.585714285714286
 40
0.6
 40
0.614285714285714
 40
0.628571428571428
 40
0.642857142857142
 40
0.6571428571428569
 40
0.6714285714285709
 40
0.6857142857142849
 40
0.7
 40
0.714285714285714
 40
0.728571428571428
 40
0.742857142857142
 40
0.7571428571428559
 40
0.7714285714285709
 40
0.7857142857142849
 40
0.8
 40
0.8142857142857131
 40
0.8285714285714281
 40
0.842857142857142
 40
0.857142857142856
 40
0.87142857142857
 40
0.885714285714284
 40
0.9
 40
0.914285714285713
 40
0.928571428571427
 40
0.9428571428571411
 40
0.957142857142856
 40
0.97142857142857
 40
0.985714285714284
 40
1.0
 40
1.0
 40
1.0
 40
1.0
 40
1.0
 40
1.0
 10
-185.948103077312
 20
-27.3057626520816
 30
0.0
 41
1.0
 10
-186.084351935368
 20
-27.3257627264783
 30
0.0
 41
1.0
 10
-186.357154654774
 20
-27.3613073623689
 30
0.0
 41
1.0
 10
-186.767273722858
 20
-27.4012581163139
 30
0.0
 41
1.0
 10
-187.315835977795
 20
-27.429172128629
 30
0.0
 41
1.0
 10
-188.003889128059
 20
-27.4297617511213
 30
0.0
 41
1.0
 10
-188.693595682117
 20
-27.406042845782
 30
0.0
 41
1.0
 10
-189.384255407203
 20
-27.3677434358851
 30
0.0
 41
1.0
 10
-190.075335777292
 20
-27.3216638343276
 30
0.0
 41
1.0
 10
-190.766578582854
 20
-27.2700603492543
 30
0.0
 41
1.0
 10
-191.457901195455
 20
-27.2123554521336
 30
0.0
 41
1.0
 10
-192.149330040318
 20
-27.1463319913023
 30
0.0
 41
1.0
 10
-192.840926997789
 20
-27.0694277351397
 30
0.0
 41
1.0
 10
-193.532705804829
 20
-26.9802274966564
 30
0.0
 41
1.0
 10
-194.224601406689
 20
-26.8789743577904
 30
0.0
 41
1.0
 10
-194.916507842321
 20
-26.7668220316805
 30
0.0
 41
1.0
 10
-195.608299405124
 20
-26.6453925355999
 30
0.0
 41
1.0
 10
-196.299856396068
 20
-26.5162543744308
 30
0.0
 41
1.0
 10
-196.991094323802
 20
-26.3803259936977
 30
0.0
 41
1.0
 10
-197.681966093784
 20
-26.2378253539972
 30
0.0
 41
1.0
 10
-198.372446729169
 20
-26.0885702537087
 30
0.0
 41
1.0
 10
-199.062523142489
 20
-25.9321774205328
 30
0.0
 41
1.0
 10
-199.752182643103
 20
-25.7682872730504
 30
0.0
 41
1.0
 10
-200.441399934029
 20
-25.5968185208772
 30
0.0
 41
1.0
 10
-201.130138016167
 20
-25.4179473078807
 30
0.0
 41
1.0
 10
-201.81835383609
 20
-25.2319924158283
 30
0.0
 41
1.0
 10
-202.506002444241
 20
-25.039330094597
 30
0.0
 41
1.0
 10
-203.193041529461
 20
-24.8403015981121
 30
0.0
 41
1.0
 10
-203.879436444019
 20
-24.6351109519023
 30
0.0
 41
1.0
 10
-204.565159021074
 20
-24.4238471836017
 30
0.0
 41
1.0
 10
-205.250185214284
 20
-24.2065302490647
 30
0.0
 41
1.0
 10
-205.934493129178
 20
-23.9831492273497
 30
0.0
 41
1.0
 10
-206.618060975168
 20
-23.7537022300771
 30
0.0
 41
1.0
 10
-207.300864854119
 20
-23.5182396753024
 30
0.0
 41
1.0
 10
-207.982879313604
 20
-23.2768526092233
 30
0.0
 41
1.0
 10
-208.664078227658
 20
-23.0296546167739
 30
0.0
 41
1.0
 10
-209.344435576799
 20
-22.7767658741852
 30
0.0
 41
1.0
 10
-210.023926247394
 20
-22.518296909726
 30
0.0
 41
1.0
 10
-210.702526907354
 20
-22.2543310465696
 30
0.0
 41
1.0
 10
-211.380215677519
 20
-21.9849299563365
 30
0.0
 41
1.0
 10
-212.056971693065
 20
-21.7101414428645
 30
0.0
 41
1.0
 10
-212.732774705592
 20
-21.4300065639227
 30
0.0
 41
1.0
 10
-213.407604691881
 20
-21.144566771382
 30
0.0
 41
1.0
 10
-214.081441424966
 20
-20.853871848158
 30
0.0
 41
1.0
 10
-214.754264602929
 20
-20.5579778211872
 30
0.0
 41
1.0
 10
-215.426054046677
 20
-20.2569437115011
 30
0.0
 41
1.0
 10
-216.096789887615
 20
-19.9508286688853
 30
0.0
 41
1.0
 10
-216.766452750894
 20
-19.6396891500463
 30
0.0
 41
1.0
 10
-217.435023992526
 20
-19.3235756786494
 30
0.0
 41
1.0
 10
-218.102485539869
 20
-19.0025336629965
 30
0.0
 41
1.0
 10
-218.768819665234
 20
-18.6766050098986
 30
0.0
 41
1.0
 10
-219.434008779654
 20
-18.3458295446668
 30
0.0
 41
1.0
 10
-220.098035252481
 20
-18.0102464233154
 30
0.0
 41
1.0
 10
-220.760881162708
 20
-17.6698958948987
 30
0.0
 41
1.0
 10
-221.422528488466
 20
-17.3248190197678
 30
0.0
 41
1.0
 10
-222.082959437447
 20
-16.9750567063365
 30
0.0
 41
1.0
 10
-222.742156767036
 20
-16.6206489641961
 30
0.0
 41
1.0
 10
-223.400104056148
 20
-16.2616341948277
 30
0.0
 41
1.0
 10
-224.056786162913
 20
-15.8980482638235
 30
0.0
 41
1.0
 10
-224.712188905818
 20
-15.5299247745026
 30
0.0
 41
1.0
 10
-225.36629827724
 20
-15.1572961020124
 30
0.0
 41
1.0
 10
-226.01909975603
 20
-14.7801942868162
 30
0.0
 41
1.0
 10
-226.670577699987
 20
-14.3986518865334
 30
0.0
 41
1.0
 10
-227.320714440698
 20
-14.0127032008039
 30
0.0
 41
1.0
 10
-227.969490509425
 20
-13.6223841905572
 30
0.0
 41
1.0
 10
-228.616886318947
 20
-13.227730682768
 30
0.0
 41
1.0
 10
-229.262883527535
 20
-12.8287770121957
 30
0.0
 41
1.0
 10
-229.907466457517
 20
-12.425554565524
 30
0.0
 41
1.0
 10
-230.550623707451
 20
-12.0180902782727
 30
0.0
 41
1.0
 10
-231.192349064189
 20
-11.6064055435407
 30
0.0
 41
1.0
 10
-231.832639901807
 20
-11.1905166030339
 30
0.0
 41
1.0
 10
-232.343724787967
 20
-10.8544510890063
 30
0.0
 41
1.0
 10
-232.726393218395
 20
-10.6005180695256
 30
0.0
 41
1.0
 10
-232.981218830317
 20
-10.4303923859726
 30
0.0
 41
1.0
 10
-233.108559967494
 20
-10.3451202932341
 30
0.0
 41
1.0
  0
LINE
  5
1000023F
102
{ACAD_XDICTIONARY
360
10000240
102
}
330
1F
100
AcDbEntity
  8
VISIBLE
100
AcDbLine
 10
-161.286337284994
 20
-23.68564313227555
 30
0.0
 11
-185.948103077312
 21
-27.3057626520816
 31
0.0
  0
ARC
  5
10000243
102
{ACAD_XDICTIONARY
360
10000244
102
}
330
1F
100
AcDbEntity
  8
VISIBLE
100
AcDbCircle
 10
-161.055777698143
 20
-25.2563113107624
 30
0.0
 40
1.5875
100
AcDbArc
 50
8.91237840193763
 51
98.35085216122548
  0
ARC
  5
10000249
102
{ACAD_XDICTIONARY
360
1000024A
102
}
330
1F
100
AcDbEntity
  8
VISIBLE
100
AcDbCircle
 10
0.0
 20
0.0
 30
0.0
 40
161.436562
100
AcDbArc
 50
188.9123784019358
 51
201.0876215980643
  0
ARC
  5
1000024F
102
{ACAD_XDICTIONARY
360
10000250
102
}
330
1F
100
AcDbEntity
  8
VISIBLE
100
AcDbCircle
 10
-152.106550568232
 20
-58.6552816480631
 30
0.0
 40
1.5875
100
AcDbArc
 50
291.6491478387969
 51
21.08762159806692
  0
LINE
  5
10000255
102
{ACAD_XDICTIONARY
360
10000256
102
}
330
1F
100
AcDbEntity
  8
VISIBLE
100
AcDbLine
 10
-151.520886938287
 20
-60.13079998497359
 30
0.0
 11
-174.68866237652
 21
-69.3265674122448
 31
0.0
  0
SPLINE
  5
10000259
102
{ACAD_XDICTIONARY
360
1000025A
102
}
330
1F
100
AcDbEntity
  8
VISIBLE
100
AcDbSpline
210
0.0
220
0.0
230
1.0
 70
    12
 71
     5
 72
    81
 73
    75
 74
     0
 42
0.0000000001
 43
0.00000001
 40
0.0
 40
0.0
 40
0.0
 40
0.0
 40
0.0
 40
0.0
 40
0.0142857142857143
 40
0.0285714285714286
 40
0.0428571428571429
 40
0.0571428571428571
 40
0.0714285714285714
 40
0.0857142857142857
 40
0.1
 40
0.114285714285714
 40
0.128571428571429
 40
0.142857142857143
 40
0.157142857142857
 40
0.171428571428571
 40
0.185714285714286
 40
0.2
 40
0.214285714285714
 40
0.228571428571429
 40
0.242857142857143
 40
0.257142857142857
 40
0.271428571428571
 40
0.285714285714286
 40
0.3
 40
0.314285714285714
 40
0.328571428571429
 40
0.342857142857143
 40
0.357142857142857
 40
0.371428571428571
 40
0.385714285714286
 40
0.4
 40
0.414285714285714
 40
0.428571428571429
 40
0.442857142857143
 40
0.457142857142857
 40
0.471428571428572
 40
0.485714285714286
 40
0.5
 40
0.514285714285714
 40
0.528571428571429
 40
0.542857142857143
 40
0.5571428571428569
 40
0.571428571428571
 40
0.585714285714286
 40
0.6
 40
0.614285714285714
 40
0.628571428571428
 40
0.642857142857142
 40
0.6571428571428569
 40
0.6714285714285709
 40
0.6857142857142849
 40
0.7
 40
0.714285714285714
 40
0.728571428571428
 40
0.742857142857142
 40
0.7571428571428559
 40
0.7714285714285709
 40
0.7857142857142849
 40
0.8
 40
0.8142857142857131
 40
0.8285714285714281
 40
0.842857142857142
 40
0.857142857142856
 40
0.87142857142857
 40
0.885714285714284
 40
0.9
 40
0.914285714285713
 40
0.928571428571427
 40
0.9428571428571411
 40
0.957142857142856
 40
0.97142857142857
 40
0.985714285714284
 40
1.0
 40
1.0
 40
1.0
 40
1.0
 40
1.0
 40
1.0
 10
-174.68866237652
 20
-69.326567412245
 30
0.0
 41
1.0
 10
-174.816657386032
 20
-69.37737126876779
 30
0.0
 41
1.0
 10
-175.070683789204
 20
-69.48299007082129
 30
0.0
 41
1.0
 10
-175.445832697714
 20
-69.65345123704688
 30
0.0
 41
1.0
 10
-175.934858552204
 20
-69.90355812072869
 30
0.0
 41
1.0
 10
-176.531024870733
 20
-70.24707406780401
 30
0.0
 41
1.0
 10
-177.116468815034
 20
-70.6124685194066
 30
0.0
 41
1.0
 10
-177.695447977381
 20
-70.9909666438703
 30
0.0
 41
1.0
 10
-178.270901333156
 20
-71.37641293445989
 30
0.0
 41
1.0
 10
-178.84373342042
 20
-71.76672426623831
 30
0.0
 41
1.0
 10
-179.413583916582
 20
-72.16235947936781
 30
0.0
 41
1.0
 10
-179.979367130727
 20
-72.56525189612499
 30
0.0
 41
1.0
 10
-180.539855536996
 20
-72.9776514143566
 30
0.0
 41
1.0
 10
-181.09435343845
 20
-73.4007904904265
 30
0.0
 41
1.0
 10
-181.642926036994
 20
-73.8344260818274
 30
0.0
 41
1.0
 10
-182.186058424239
 20
-74.2775060631483
 30
0.0
 41
1.0
 10
-182.72445274371
 20
-74.7285628729243
 30
0.0
 41
1.0
 10
-183.258789585448
 20
-75.186178296567
 30
0.0
 41
1.0
 10
-183.789455000558
 20
-75.6495146912442
 30
0.0
 41
1.0
 10
-184.316517184269
 20
-76.118359750271
 30
0.0
 41
1.0
 10
-184.83986340519
 20
-76.5928587764579
 30
0.0
 41
1.0
 10
-185.35929069309
 20
-77.0733371496179
 30
0.0
 41
1.0
 10
-185.874608266841
 20
-77.5600999310746
 30
0.0
 41
1.0
 10
-186.385753573425
 20
-78.0532048718751
 30
0.0
 41
1.0
 10
-186.892782642611
 20
-78.55248092740449
 30
0.0
 41
1.0
 10
-187.395817579925
 20
-79.05763049784169
 30
0.0
 41
1.0
 10
-187.895007582845
 20
-79.5683052664554
 30
0.0
 41
1.0
 10
-188.390486635795
 20
-80.08418854309821
 30
0.0
 41
1.0
 10
-188.882326745727
 20
-80.6050863126141
 30
0.0
 41
1.0
 10
-189.370548033255
 20
-81.1309073913892
 30
0.0
 41
1.0
 10
-189.855139651563
 20
-81.6616224739755
 30
0.0
 41
1.0
 10
-190.336077179015
 20
-82.19723007095129
 30
0.0
 41
1.0
 10
-190.813340800216
 20
-82.73772092240621
 30
0.0
 41
1.0
 10
-191.286935027803
 20
-83.28303941595689
 30
0.0
 41
1.0
 10
-191.756883342425
 20
-83.8330939770684
 30
0.0
 41
1.0
 10
-192.223219910802
 20
-84.38777317532109
 30
0.0
 41
1.0
 10
-192.685982287515
 20
-84.94695992530448
 30
0.0
 41
1.0
 10
-193.145203987655
 20
-85.5105459499136
 30
0.0
 41
1.0
 10
-193.600906466627
 20
-86.078447423119
 30
0.0
 41
1.0
 10
-194.053101612333
 20
-86.6505999961506
 30
0.0
 41
1.0
 10
-194.501795257225
 20
-87.2269518372589
 30
0.0
 41
1.0
 10
-194.946990394556
 20
-87.807457265172
 30
0.0
 41
1.0
 10
-195.388690409647
 20
-88.3920703699074
 30
0.0
 41
1.0
 10
-195.82690267689
 20
-88.9807379247133
 30
0.0
 41
1.0
 10
-196.261637627776
 20
-89.57340125787961
 30
0.0
 41
1.0
 10
-196.692907297212
 20
-90.169999166147
 30
0.0
 41
1.0
 10
-197.120724053385
 20
-90.770470490002
 30
0.0
 41
1.0
 10
-197.545099345537
 20
-91.3747566490776
 30
0.0
 41
1.0
 10
-197.966042289331
 20
-91.9828045666018
 30
0.0
 41
1.0
 10
-198.383559937553
 20
-92.5945658815105
 30
0.0
 41
1.0
 10
-198.797657890979
 20
-93.2099954375971
 30
0.0
 41
1.0
 10
-199.208340829772
 20
-93.82904995064669
 30
0.0
 41
1.0
 10
-199.615613063349
 20
-94.4516866952316
 30
0.0
 41
1.0
 10
-200.019479196192
 20
-95.0778618541455
 30
0.0
 41
1.0
 10
-200.419944151079
 20
-95.70753085714661
 30
0.0
 41
1.0
 10
-200.817012973627
 20
-96.3406493803549
 30
0.0
 41
1.0
 10
-201.210690736087
 20
-96.9771741531407
 30
0.0
 41
1.0
 10
-201.600982418125
 20
-97.6170637083036
 30
0.0
 41
1.0
 10
-201.987892839292
 20
-98.26027941439419
 30
0.0
 41
1.0
 10
-202.371426519697
 20
-98.9067850793285
 30
0.0
 41
1.0
 10
-202.751587515957
 20
-99.5565456615944
 30
0.0
 41
1.0
 10
-203.12837927262
 20
-100.209526152763
 30
0.0
 41
1.0
 10
-203.50180452195
 20
-100.865690536007
 30
0.0
 41
1.0
 10
-203.871865112474
 20
-101.525000272761
 30
0.0
 41
1.0
 10
-204.238562164236
 20
-102.187414485579
 30
0.0
 41
1.0
 10
-204.601896627691
 20
-102.852892353778
 30
0.0
 41
1.0
 10
-204.961869785816
 20
-103.52139497172
 30
0.0
 41
1.0
 10
-205.31848375469
 20
-104.192887318905
 30
0.0
 41
1.0
 10
-205.671742128135
 20
-104.867340367766
 30
0.0
 41
1.0
 10
-206.021650221957
 20
-105.544732484764
 30
0.0
 41
1.0
 10
-206.368213882892
 20
-106.225048291205
 30
0.0
 41
1.0
 10
-206.642793620782
 20
-106.771632006768
 30
0.0
 41
1.0
 10
-206.847227693019
 20
-107.182878667712
 30
0.0
 41
1.0
 10
-206.982850304702
 20
-107.457624637467
 30
0.0
 41
1.0
 10
-207.050494918075
 20
-107.5951430046
 30
0.0
 41
1.0
  0
ARC
  5
1000025D
102
{ACAD_XDICTIONARY
360
1000025E
102
}
330
1F
100
AcDbEntity
  8
VISIBLE
100
AcDbCircle
 10
-0.0000000000084918
 20
-0.0000000000049027
 30
0.0
 40
233.33799999999
100
AcDbArc
 50
207.4589390306314
 51
212.5410609693686
  0
SPLINE
  5
10000263
102
{ACAD_XDICTIONARY
360
10000264
102
}
330
1F
100
AcDbEntity
  8
VISIBLE
100
AcDbSpline
210
0.0
220
0.0
230
1.0
 70
    12
 71
     5
 72
    81
 73
    75
 74
     0
 42
0.0000000001
 43
0.00000001
 40
0.0
 40
0.0
 40
0.0
 40
0.0
 40
0.0
 40
0.0
 40
0.0142857142857143
 40
0.0285714285714286
 40
0.0428571428571429
 40
0.0571428571428571
 40
0.0714285714285714
 40
0.0857142857142857
 40
0.1
 40
0.114285714285714
 40
0.128571428571429
 40
0.142857142857143
 40
0.157142857142857
 40
0.171428571428571
 40
0.185714285714286
 40
0.2
 40
0.214285714285714
 40
0.228571428571429
 40
0.242857142857143
 40
0.257142857142857
 40
0.271428571428571
 40
0.285714285714286
 40
0.3
 40
0.314285714285714
 40
0.328571428571429
 40
0.342857142857143
 40
0.357142857142857
 40
0.371428571428571
 40
0.385714285714286
 40
0.4
 40
0.414285714285714
 40
0.428571428571429
 40
0.442857142857143
 40
0.457142857142857
 40
0.471428571428572
 40
0.485714285714286
 40
0.5
 40
0.514285714285714
 40
0.528571428571429
 40
0.542857142857143
 40
0.5571428571428569
 40
0.571428571428571
 40
0.585714285714286
 40
0.6
 40
0.614285714285714
 40
0.628571428571428
 40
0.642857142857142
 40
0.6571428571428569
 40
0.6714285714285709
 40
0.6857142857142849
 40
0.7
 40
0.714285714285714
 40
0.728571428571428
 40
0.742857142857142
 40
0.7571428571428559
 40
0.7714285714285709
 40
0.7857142857142849
 40
0.8
 40
0.8142857142857131
 40
0.8285714285714281
 40
0.842857142857142
 40
0.857142857142856
 40
0.87142857142857
 40
0.885714285714284
 40
0.9
 40
0.914285714285713
 40
0.928571428571427
 40
0.9428571428571411
 40
0.957142857142856
 40
0.97142857142857
 40
0.985714285714284
 40
1.0
 40
1.0
 40
1.0
 40
1.0
 40
1.0
 40
1.0
 10
-147.382899724439
 20
-116.621535665067
 30
0.0
 41
1.0
 10
-147.490894659553
 20
-116.7069806666
 30
0.0
 41
1.0
 10
-147.709376426835
 20
-116.874164583953
 30
0.0
 41
1.0
 10
-148.0445745814
 20
-117.113822485812
 30
0.0
 41
1.0
 10
-148.505686423575
 20
-117.412277857066
 30
0.0
 41
1.0
 10
-149.101263119612
 20
-117.756815060256
 30
0.0
 41
1.0
 10
-149.710425969252
 20
-118.08112716271
 30
0.0
 41
1.0
 10
-150.327704541496
 20
-118.393288763333
 30
0.0
 41
1.0
 10
-150.949237498828
 20
-118.698922842832
 30
0.0
 41
1.0
 10
-151.573673071165
 20
-118.999854316616
 30
0.0
 41
1.0
 10
-152.201228464448
 20
-119.295541716087
 30
0.0
 41
1.0
 10
-152.833035139425
 20
-119.584078144193
 30
0.0
 41
1.0
 10
-153.470427801856
 20
-119.863275583433
 30
0.0
 41
1.0
 10
-154.114125941793
 20
-120.131915314402
 30
0.0
 41
1.0
 10
-154.763951679204
 20
-120.390175324861
 30
0.0
 41
1.0
 10
-155.419236392559
 20
-120.639001779173
 30
0.0
 41
1.0
 10
-156.07906020811
 20
-120.8797365322
 30
0.0
 41
1.0
 10
-156.742535211017
 20
-121.113678099502
 30
0.0
 41
1.0
 10
-157.409129006861
 20
-121.341579632558
 30
0.0
 41
1.0
 10
-158.078691830272
 20
-121.563606343513
 30
0.0
 41
1.0
 10
-158.751293151481
 20
-121.779587952711
 30
0.0
 41
1.0
 10
-159.427113272557
 20
-121.989185992871
 30
0.0
 41
1.0
 10
-160.106320993791
 20
-122.192082712028
 30
0.0
 41
1.0
 10
-160.788935052547
 20
-122.388195062154
 30
0.0
 41
1.0
 10
-161.47483533473
 20
-122.577657088762
 30
0.0
 41
1.0
 10
-162.163825164097
 20
-122.760723338249
 30
0.0
 41
1.0
 10
-162.855677488248
 20
-122.937697177786
 30
0.0
 41
1.0
 10
-163.550185037683
 20
-123.108852986363
 30
0.0
 41
1.0
 10
-164.247215793824
 20
-123.274350131405
 30
0.0
 41
1.0
 10
-164.946700849653
 20
-123.434251629685
 30
0.0
 41
1.0
 10
-165.648609402498
 20
-123.588562740308
 30
0.0
 41
1.0
 10
-166.352927951665
 20
-123.737263058227
 30
0.0
 41
1.0
 10
-167.059638570139
 20
-123.880340052762
 30
0.0
 41
1.0
 10
-167.768695352501
 20
-124.017825438163
 30
0.0
 41
1.0
 10
-168.480030733202
 20
-124.149785336535
 30
0.0
 41
1.0
 10
-169.193565294028
 20
-124.276305052337
 30
0.0
 41
1.0
 10
-169.90921641333
 20
-124.397475651494
 30
0.0
 41
1.0
 10
-170.626907077929
 20
-124.51338029748
 30
0.0
 41
1.0
 10
-171.346575420058
 20
-124.624079484235
 30
0.0
 41
1.0
 10
-172.068171655997
 20
-124.729615681369
 30
0.0
 41
1.0
 10
-172.79165381436
 20
-124.830019855807
 30
0.0
 41
1.0
 10
-173.516983830633
 20
-124.925317440421
 30
0.0
 41
1.0
 10
-174.244123638265
 20
-125.015534321974
 30
0.0
 41
1.0
 10
-174.973030828732
 20
-125.100703500253
 30
0.0
 41
1.0
 10
-175.703659806588
 20
-125.18086334505
 30
0.0
 41
1.0
 10
-176.435963585711
 20
-125.25605488053
 30
0.0
 41
1.0
 10
-177.1698953845
 20
-125.326319397613
 30
0.0
 41
1.0
 10
-177.905410195491
 20
-125.391696101817
 30
0.0
 41
1.0
 10
-178.642466610682
 20
-125.452219425925
 30
0.0
 41
1.0
 10
-179.381026274556
 20
-125.507919658358
 30
0.0
 41
1.0
 10
-180.12105288108
 20
-125.558824227637
 30
0.0
 41
1.0
 10
-180.862511285105
 20
-125.604958829008
 30
0.0
 41
1.0
 10
-181.605366640034
 20
-125.646348557249
 30
0.0
 41
1.0
 10
-182.349583301293
 20
-125.683019308563
 30
0.0
 41
1.0
 10
-183.095125131312
 20
-125.71499763132
 30
0.0
 41
1.0
 10
-183.84195626729
 20
-125.742310057093
 30
0.0
 41
1.0
 10
-184.590041771891
 20
-125.764982613895
 30
0.0
 41
1.0
 10
-185.339348223297
 20
-125.783040347845
 30
0.0
 41
1.0
 10
-186.089844575468
 20
-125.796506748519
 30
0.0
 41
1.0
 10
-186.841501745195
 20
-125.805403826489
 30
0.0
 41
1.0
 10
-187.594291413945
 20
-125.809752615645
 30
0.0
 41
1.0
 10
-188.348184985803
 20
-125.809573603268
 30
0.0
 41
1.0
 10
-189.103152635417
 20
-125.80488716398
 30
0.0
 41
1.0
 10
-189.85916191167
 20
-125.795714167937
 30
0.0
 41
1.0
 10
-190.616177973679
 20
-125.782076023847
 30
0.0
 41
1.0
 10
-191.374165944923
 20
-125.763993965169
 30
0.0
 41
1.0
 10
-192.13309277362
 20
-125.741488555815
 30
0.0
 41
1.0
 10
-192.892929189166
 20
-125.714579138612
 30
0.0
 41
1.0
 10
-193.653651849863
 20
-125.683283339684
 30
0.0
 41
1.0
 10
-194.415244678417
 20
-125.647616579425
 30
0.0
 41
1.0
 10
-195.177697279858
 20
-125.607591610603
 30
0.0
 41
1.0
 10
-195.788342531776
 20
-125.572092781199
 30
0.0
 41
1.0
 10
-196.246709623494
 20
-125.543514550683
 30
0.0
 41
1.0
 10
-196.55245791873
 20
-125.523594192851
 30
0.0
 41
1.0
 10
-196.705374624841
 20
-125.513416962894
 30
0.0
 41
1.0
  0
LINE
  5
10000267
102
{ACAD_XDICTIONARY
360
10000268
102
}
330
1F
100
AcDbEntity
  8
VISIBLE
100
AcDbLine
 10
-127.8352438060118
 20
-101.1555373000202
 30
0.0
 11
-147.3828997244386
 21
-116.6215356650674
 31
0.0
  0
ARC
  5
1000026B
102
{ACAD_XDICTIONARY
360
1000026C
102
}
330
1F
100
AcDbEntity
  8
VISIBLE
100
AcDbCircle
 10
-126.85023925747
 20
-102.40049605008
 30
0.0
 40
1.5875
100
AcDbArc
 50
38.91237840192772
 51
128.3508521612071
  0
ARC
  5
10000271
102
{ACAD_XDICTIONARY
360
10000272
102
}
330
1F
100
AcDbEntity
  8
VISIBLE
100
AcDbCircle
 10
0.0
 20
0.0
 30
0.0
 40
161.436562
100
AcDbArc
 50
218.9123784019359
 51
231.0876215980645
  0
ARC
  5
10000277
102
{ACAD_XDICTIONARY
360
10000278
102
}
330
1F
100
AcDbEntity
  8
VISIBLE
100
AcDbCircle
 10
-102.40049605008
 20
-126.85023925747
 30
0.0
 40
1.5875
100
AcDbArc
 50
321.6491478387929
 51
51.08762159804647
  0
LINE
  5
1000027D
102
{ACAD_XDICTIONARY
360
1000027E
102
}
330
1F
100
AcDbEntity
  8
VISIBLE
100
AcDbLine
 10
-101.1555373000196
 20
-127.8352438060122
 30
0.0
 11
-116.621535665067
 21
-147.382899724439
 31
0.0
  0
SPLINE
  5
10000281
102
{ACAD_XDICTIONARY
360
10000282
102
}
330
1F
100
AcDbEntity
  8
VISIBLE
100
AcDbSpline
210
0.0
220
0.0
230
1.0
 70
    12
 71
     5
 72
    81
 73
    75
 74
     0
 42
0.0000000001
 43
0.00000001
 40
0.0
 40
0.0
 40
0.0
 40
0.0
 40
0.0
 40
0.0
 40
0.0142857142857143
 40
0.0285714285714286
 40
0.0428571428571429
 40
0.0571428571428571
 40
0.0714285714285714
 40
0.0857142857142857
 40
0.1
 40
0.114285714285714
 40
0.128571428571429
 40
0.142857142857143
 40
0.157142857142857
 40
0.171428571428571
 40
0.185714285714286
 40
0.2
 40
0.214285714285714
 40
0.228571428571429
 40
0.242857142857143
 40
0.257142857142857
 40
0.271428571428571
 40
0.285714285714286
 40
0.3
 40
0.314285714285714
 40
0.328571428571429
 40
0.342857142857143
 40
0.357142857142857
 40
0.371428571428571
 40
0.385714285714286
 40
0.4
 40
0.414285714285714
 40
0.428571428571429
 40
0.442857142857143
 40
0.457142857142857
 40
0.471428571428572
 40
0.485714285714286
 40
0.5
 40
0.514285714285714
 40
0.528571428571429
 40
0.542857142857143
 40
0.5571428571428569
 40
0.571428571428571
 40
0.585714285714286
 40
0.6
 40
0.614285714285714
 40
0.628571428571428
 40
0.642857142857142
 40
0.6571428571428569
 40
0.6714285714285709
 40
0.6857142857142849
 40
0.7
 40
0.714285714285714
 40
0.728571428571428
 40
0.742857142857142
 40
0.7571428571428559
 40
0.7714285714285709
 40
0.7857142857142849
 40
0.8
 40
0.8142857142857131
 40
0.8285714285714281
 40
0.842857142857142
 40
0.857142857142856
 40
0.87142857142857
 40
0.885714285714284
 40
0.9
 40
0.914285714285713
 40
0.928571428571427
 40
0.9428571428571411
 40
0.957142857142856
 40
0.97142857142857
 40
0.985714285714284
 40
1.0
 40
1.0
 40
1.0
 40
1.0
 40
1.0
 40
1.0
 10
-116.621535665067
 20
-147.382899724439
 30
0.0
 41
1.0
 10
-116.7069806666
 20
-147.490894659553
 30
0.0
 41
1.0
 10
-116.874164583952
 20
-147.709376426835
 30
0.0
 41
1.0
 10
-117.113822485811
 20
-148.0445745814
 30
0.0
 41
1.0
 10
-117.412277857066
 20
-148.505686423575
 30
0.0
 41
1.0
 10
-117.756815060255
 20
-149.101263119612
 30
0.0
 41
1.0
 10
-118.08112716271
 20
-149.710425969252
 30
0.0
 41
1.0
 10
-118.393288763333
 20
-150.327704541496
 30
0.0
 41
1.0
 10
-118.698922842832
 20
-150.949237498828
 30
0.0
 41
1.0
 10
-118.999854316616
 20
-151.573673071165
 30
0.0
 41
1.0
 10
-119.295541716087
 20
-152.201228464448
 30
0.0
 41
1.0
 10
-119.584078144193
 20
-152.833035139425
 30
0.0
 41
1.0
 10
-119.863275583433
 20
-153.470427801856
 30
0.0
 41
1.0
 10
-120.131915314402
 20
-154.114125941793
 30
0.0
 41
1.0
 10
-120.390175324861
 20
-154.763951679204
 30
0.0
 41
1.0
 10
-120.639001779173
 20
-155.419236392559
 30
0.0
 41
1.0
 10
-120.8797365322
 20
-156.07906020811
 30
0.0
 41
1.0
 10
-121.113678099501
 20
-156.742535211017
 30
0.0
 41
1.0
 10
-121.341579632558
 20
-157.409129006861
 30
0.0
 41
1.0
 10
-121.563606343513
 20
-158.078691830272
 30
0.0
 41
1.0
 10
-121.779587952711
 20
-158.751293151481
 30
0.0
 41
1.0
 10
-121.989185992871
 20
-159.427113272557
 30
0.0
 41
1.0
 10
-122.192082712028
 20
-160.106320993791
 30
0.0
 41
1.0
 10
-122.388195062154
 20
-160.788935052547
 30
0.0
 41
1.0
 10
-122.577657088762
 20
-161.47483533473
 30
0.0
 41
1.0
 10
-122.760723338249
 20
-162.163825164097
 30
0.0
 41
1.0
 10
-122.937697177786
 20
-162.855677488248
 30
0.0
 41
1.0
 10
-123.108852986363
 20
-163.550185037683
 30
0.0
 41
1.0
 10
-123.274350131405
 20
-164.247215793824
 30
0.0
 41
1.0
 10
-123.434251629685
 20
-164.946700849653
 30
0.0
 41
1.0
 10
-123.588562740308
 20
-165.648609402499
 30
0.0
 41
1.0
 10
-123.737263058227
 20
-166.352927951665
 30
0.0
 41
1.0
 10
-123.880340052762
 20
-167.059638570139
 30
0.0
 41
1.0
 10
-124.017825438163
 20
-167.768695352501
 30
0.0
 41
1.0
 10
-124.149785336535
 20
-168.480030733202
 30
0.0
 41
1.0
 10
-124.276305052337
 20
-169.193565294028
 30
0.0
 41
1.0
 10
-124.397475651494
 20
-169.90921641333
 30
0.0
 41
1.0
 10
-124.51338029748
 20
-170.626907077929
 30
0.0
 41
1.0
 10
-124.624079484235
 20
-171.346575420058
 30
0.0
 41
1.0
 10
-124.729615681368
 20
-172.068171655997
 30
0.0
 41
1.0
 10
-124.830019855807
 20
-172.79165381436
 30
0.0
 41
1.0
 10
-124.92531744042
 20
-173.516983830633
 30
0.0
 41
1.0
 10
-125.015534321974
 20
-174.244123638265
 30
0.0
 41
1.0
 10
-125.100703500253
 20
-174.973030828732
 30
0.0
 41
1.0
 10
-125.18086334505
 20
-175.703659806588
 30
0.0
 41
1.0
 10
-125.25605488053
 20
-176.435963585711
 30
0.0
 41
1.0
 10
-125.326319397613
 20
-177.1698953845
 30
0.0
 41
1.0
 10
-125.391696101817
 20
-177.905410195491
 30
0.0
 41
1.0
 10
-125.452219425925
 20
-178.642466610682
 30
0.0
 41
1.0
 10
-125.507919658358
 20
-179.381026274556
 30
0.0
 41
1.0
 10
-125.558824227637
 20
-180.12105288108
 30
0.0
 41
1.0
 10
-125.604958829008
 20
-180.862511285105
 30
0.0
 41
1.0
 10
-125.646348557249
 20
-181.605366640034
 30
0.0
 41
1.0
 10
-125.683019308563
 20
-182.349583301293
 30
0.0
 41
1.0
 10
-125.71499763132
 20
-183.095125131312
 30
0.0
 41
1.0
 10
-125.742310057092
 20
-183.84195626729
 30
0.0
 41
1.0
 10
-125.764982613895
 20
-184.590041771891
 30
0.0
 41
1.0
 10
-125.783040347844
 20
-185.339348223297
 30
0.0
 41
1.0
 10
-125.796506748518
 20
-186.089844575468
 30
0.0
 41
1.0
 10
-125.805403826489
 20
-186.841501745195
 30
0.0
 41
1.0
 10
-125.809752615645
 20
-187.594291413945
 30
0.0
 41
1.0
 10
-125.809573603268
 20
-188.348184985803
 30
0.0
 41
1.0
 10
-125.80488716398
 20
-189.103152635417
 30
0.0
 41
1.0
 10
-125.795714167936
 20
-189.85916191167
 30
0.0
 41
1.0
 10
-125.782076023847
 20
-190.616177973679
 30
0.0
 41
1.0
 10
-125.763993965169
 20
-191.374165944923
 30
0.0
 41
1.0
 10
-125.741488555815
 20
-192.13309277362
 30
0.0
 41
1.0
 10
-125.714579138612
 20
-192.892929189166
 30
0.0
 41
1.0
 10
-125.683283339684
 20
-193.653651849863
 30
0.0
 41
1.0
 10
-125.647616579425
 20
-194.415244678417
 30
0.0
 41
1.0
 10
-125.607591610602
 20
-195.177697279858
 30
0.0
 41
1.0
 10
-125.572092781198
 20
-195.788342531776
 30
0.0
 41
1.0
 10
-125.543514550683
 20
-196.246709623494
 30
0.0
 41
1.0
 10
-125.523594192851
 20
-196.55245791873
 30
0.0
 41
1.0
 10
-125.513416962893
 20
-196.705374624841
 30
0.0
 41
1.0
  0
ARC
  5
10000285
102
{ACAD_XDICTIONARY
360
10000286
102
}
330
1F
100
AcDbEntity
  8
VISIBLE
100
AcDbCircle
 10
-0.0000000000049027
 20
-0.0000000000084918
 30
0.0
 40
233.33799999999
100
AcDbArc
 50
237.4589390306315
 51
242.5410609693686
  0
SPLINE
  5
1000028B
102
{ACAD_XDICTIONARY
360
1000028C
102
}
330
1F
100
AcDbEntity
  8
VISIBLE
100
AcDbSpline
210
0.0
220
0.0
230
1.0
 70
    12
 71
     5
 72
    81
 73
    75
 74
     0
 42
0.0000000001
 43
0.00000001
 40
0.0
 40
0.0
 40
0.0
 40
0.0
 40
0.0
 40
0.0
 40
0.0142857142857143
 40
0.0285714285714286
 40
0.0428571428571429
 40
0.0571428571428571
 40
0.0714285714285714
 40
0.0857142857142857
 40
0.1
 40
0.114285714285714
 40
0.128571428571429
 40
0.142857142857143
 40
0.157142857142857
 40
0.171428571428571
 40
0.185714285714286
 40
0.2
 40
0.214285714285714
 40
0.228571428571429
 40
0.242857142857143
 40
0.257142857142857
 40
0.271428571428571
 40
0.285714285714286
 40
0.3
 40
0.314285714285714
 40
0.328571428571429
 40
0.342857142857143
 40
0.357142857142857
 40
0.371428571428571
 40
0.385714285714286
 40
0.4
 40
0.414285714285714
 40
0.428571428571429
 40
0.442857142857143
 40
0.457142857142857
 40
0.471428571428572
 40
0.485714285714286
 40
0.5
 40
0.514285714285714
 40
0.528571428571429
 40
0.542857142857143
 40
0.5571428571428569
 40
0.571428571428571
 40
0.585714285714286
 40
0.6
 40
0.614285714285714
 40
0.628571428571428
 40
0.642857142857142
 40
0.6571428571428569
 40
0.6714285714285709
 40
0.6857142857142849
 40
0.7
 40
0.714285714285714
 40
0.728571428571428
 40
0.742857142857142
 40
0.7571428571428559
 40
0.7714285714285709
 40
0.7857142857142849
 40
0.8
 40
0.8142857142857131
 40
0.8285714285714281
 40
0.842857142857142
 40
0.857142857142856
 40
0.87142857142857
 40
0.885714285714284
 40
0.9
 40
0.914285714285713
 40
0.928571428571427
 40
0.9428571428571411
 40
0.957142857142856
 40
0.97142857142857
 40
0.985714285714284
 40
1.0
 40
1.0
 40
1.0
 40
1.0
 40
1.0
 40
1.0
 10
-69.3265674122449
 20
-174.68866237652
 30
0.0
 41
1.0
 10
-69.37737126876769
 20
-174.816657386032
 30
0.0
 41
1.0
 10
-69.48299007082119
 20
-175.070683789204
 30
0.0
 41
1.0
 10
-69.6534512370468
 20
-175.445832697714
 30
0.0
 41
1.0
 10
-69.9035581207286
 20
-175.934858552204
 30
0.0
 41
1.0
 10
-70.24707406780391
 20
-176.531024870733
 30
0.0
 41
1.0
 10
-70.6124685194065
 20
-177.116468815034
 30
0.0
 41
1.0
 10
-70.9909666438702
 20
-177.695447977381
 30
0.0
 41
1.0
 10
-71.37641293445981
 20
-178.270901333156
 30
0.0
 41
1.0
 10
-71.7667242662382
 20
-178.84373342042
 30
0.0
 41
1.0
 10
-72.16235947936771
 20
-179.413583916582
 30
0.0
 41
1.0
 10
-72.56525189612489
 20
-179.979367130727
 30
0.0
 41
1.0
 10
-72.9776514143565
 20
-180.539855536996
 30
0.0
 41
1.0
 10
-73.4007904904264
 20
-181.09435343845
 30
0.0
 41
1.0
 10
-73.83442608182729
 20
-181.642926036994
 30
0.0
 41
1.0
 10
-74.2775060631482
 20
-182.186058424239
 30
0.0
 41
1.0
 10
-74.72856287292419
 20
-182.72445274371
 30
0.0
 41
1.0
 10
-75.1861782965669
 20
-183.258789585448
 30
0.0
 41
1.0
 10
-75.6495146912441
 20
-183.789455000558
 30
0.0
 41
1.0
 10
-76.1183597502709
 20
-184.31651718427
 30
0.0
 41
1.0
 10
-76.5928587764578
 20
-184.83986340519
 30
0.0
 41
1.0
 10
-77.0733371496178
 20
-185.35929069309
 30
0.0
 41
1.0
 10
-77.5600999310745
 20
-185.874608266841
 30
0.0
 41
1.0
 10
-78.05320487187501
 20
-186.385753573425
 30
0.0
 41
1.0
 10
-78.5524809274044
 20
-186.892782642611
 30
0.0
 41
1.0
 10
-79.05763049784159
 20
-187.395817579925
 30
0.0
 41
1.0
 10
-79.5683052664553
 20
-187.895007582845
 30
0.0
 41
1.0
 10
-80.0841885430981
 20
-188.390486635796
 30
0.0
 41
1.0
 10
-80.60508631261399
 20
-188.882326745727
 30
0.0
 41
1.0
 10
-81.1309073913891
 20
-189.370548033255
 30
0.0
 41
1.0
 10
-81.66162247397538
 20
-189.855139651563
 30
0.0
 41
1.0
 10
-82.19723007095111
 20
-190.336077179015
 30
0.0
 41
1.0
 10
-82.73772092240611
 20
-190.813340800216
 30
0.0
 41
1.0
 10
-83.2830394159568
 20
-191.286935027803
 30
0.0
 41
1.0
 10
-83.8330939770683
 20
-191.756883342425
 30
0.0
 41
1.0
 10
-84.38777317532099
 20
-192.223219910802
 30
0.0
 41
1.0
 10
-84.9469599253044
 20
-192.685982287515
 30
0.0
 41
1.0
 10
-85.5105459499135
 20
-193.145203987655
 30
0.0
 41
1.0
 10
-86.07844742311889
 20
-193.600906466628
 30
0.0
 41
1.0
 10
-86.6505999961505
 20
-194.053101612333
 30
0.0
 41
1.0
 10
-87.2269518372587
 20
-194.501795257225
 30
0.0
 41
1.0
 10
-87.80745726517179
 20
-194.946990394556
 30
0.0
 41
1.0
 10
-88.3920703699073
 20
-195.388690409647
 30
0.0
 41
1.0
 10
-88.9807379247132
 20
-195.82690267689
 30
0.0
 41
1.0
 10
-89.5734012578794
 20
-196.261637627776
 30
0.0
 41
1.0
 10
-90.1699991661469
 20
-196.692907297212
 30
0.0
 41
1.0
 10
-90.7704704900019
 20
-197.120724053385
 30
0.0
 41
1.0
 10
-91.3747566490775
 20
-197.545099345537
 30
0.0
 41
1.0
 10
-91.9828045666017
 20
-197.966042289331
 30
0.0
 41
1.0
 10
-92.5945658815103
 20
-198.383559937553
 30
0.0
 41
1.0
 10
-93.20999543759699
 20
-198.797657890979
 30
0.0
 41
1.0
 10
-93.8290499506466
 20
-199.208340829772
 30
0.0
 41
1.0
 10
-94.4516866952315
 20
-199.615613063349
 30
0.0
 41
1.0
 10
-95.0778618541454
 20
-200.019479196192
 30
0.0
 41
1.0
 10
-95.7075308571464
 20
-200.419944151079
 30
0.0
 41
1.0
 10
-96.3406493803548
 20
-200.817012973627
 30
0.0
 41
1.0
 10
-96.9771741531406
 20
-201.210690736087
 30
0.0
 41
1.0
 10
-97.6170637083035
 20
-201.600982418125
 30
0.0
 41
1.0
 10
-98.26027941439409
 20
-201.987892839292
 30
0.0
 41
1.0
 10
-98.9067850793284
 20
-202.371426519697
 30
0.0
 41
1.0
 10
-99.5565456615943
 20
-202.751587515957
 30
0.0
 41
1.0
 10
-100.209526152763
 20
-203.12837927262
 30
0.0
 41
1.0
 10
-100.865690536007
 20
-203.50180452195
 30
0.0
 41
1.0
 10
-101.525000272761
 20
-203.871865112474
 30
0.0
 41
1.0
 10
-102.187414485579
 20
-204.238562164236
 30
0.0
 41
1.0
 10
-102.852892353778
 20
-204.601896627691
 30
0.0
 41
1.0
 10
-103.52139497172
 20
-204.961869785816
 30
0.0
 41
1.0
 10
-104.192887318905
 20
-205.31848375469
 30
0.0
 41
1.0
 10
-104.867340367766
 20
-205.671742128136
 30
0.0
 41
1.0
 10
-105.544732484764
 20
-206.021650221957
 30
0.0
 41
1.0
 10
-106.225048291205
 20
-206.368213882892
 30
0.0
 41
1.0
 10
-106.771632006768
 20
-206.642793620782
 30
0.0
 41
1.0
 10
-107.182878667712
 20
-206.847227693019
 30
0.0
 41
1.0
 10
-107.457624637467
 20
-206.982850304702
 30
0.0
 41
1.0
 10
-107.5951430046
 20
-207.050494918075
 30
0.0
 41
1.0
  0
LINE
  5
1000028F
102
{ACAD_XDICTIONARY
360
10000290
102
}
330
1F
100
AcDbEntity
  8
VISIBLE
100
AcDbLine
 10
-60.1307999849735
 20
-151.520886938287
 30
0.0
 11
-69.3265674122447
 21
-174.68866237652
 31
0.0
  0
ARC
  5
10000293
102
{ACAD_XDICTIONARY
360
10000294
102
}
330
1F
100
AcDbEntity
  8
VISIBLE
100
AcDbCircle
 10
-58.6552816480631
 20
-152.106550568232
 30
0.0
 40
1.5875
100
AcDbArc
 50
68.91237840193308
 51
158.3508521612031
  0
ARC
  5
10000299
102
{ACAD_XDICTIONARY
360
1000029A
102
}
330
1F
100
AcDbEntity
  8
VISIBLE
100
AcDbCircle
 10
0.0
 20
0.0
 30
0.0
 40
161.436562
100
AcDbArc
 50
248.9123784019357
 51
261.0876215980642
  0
ARC
  5
1000029F
102
{ACAD_XDICTIONARY
360
100002A0
102
}
330
1F
100
AcDbEntity
  8
VISIBLE
100
AcDbCircle
 10
-25.2563113107624
 20
-161.055777698143
 30
0.0
 40
1.5875
100
AcDbArc
 50
351.6491478387745
 51
81.08762159806237
  0
LINE
  5
100002A5
102
{ACAD_XDICTIONARY
360
100002A6
102
}
330
1F
100
AcDbEntity
  8
VISIBLE
100
AcDbLine
 10
-23.68564313227555
 20
-161.286337284994
 30
0.0
 11
-27.3057626520816
 21
-185.948103077312
 31
0.0
  0
SPLINE
  5
100002A9
102
{ACAD_XDICTIONARY
360
100002AA
102
}
330
1F
100
AcDbEntity
  8
VISIBLE
100
AcDbSpline
210
0.0
220
0.0
230
1.0
 70
    12
 71
     5
 72
    81
 73
    75
 74
     0
 42
0.0000000001
 43
0.00000001
 40
0.0
 40
0.0
 40
0.0
 40
0.0
 40
0.0
 40
0.0
 40
0.0142857142857143
 40
0.0285714285714286
 40
0.0428571428571429
 40
0.0571428571428571
 40
0.0714285714285714
 40
0.0857142857142857
 40
0.1
 40
0.114285714285714
 40
0.128571428571429
 40
0.142857142857143
 40
0.157142857142857
 40
0.171428571428571
 40
0.185714285714286
 40
0.2
 40
0.214285714285714
 40
0.228571428571429
 40
0.242857142857143
 40
0.257142857142857
 40
0.271428571428571
 40
0.285714285714286
 40
0.3
 40
0.314285714285714
 40
0.328571428571429
 40
0.342857142857143
 40
0.357142857142857
 40
0.371428571428571
 40
0.385714285714286
 40
0.4
 40
0.414285714285714
 40
0.428571428571429
 40
0.442857142857143
 40
0.457142857142857
 40
0.471428571428572
 40
0.485714285714286
 40
0.5
 40
0.514285714285714
 40
0.528571428571429
 40
0.542857142857143
 40
0.5571428571428569
 40
0.571428571428571
 40
0.585714285714286
 40
0.6
 40
0.614285714285714
 40
0.628571428571428
 40
0.642857142857142
 40
0.6571428571428569
 40
0.6714285714285709
 40
0.6857142857142849
 40
0.7
 40
0.714285714285714
 40
0.728571428571428
 40
0.742857142857142
 40
0.7571428571428559
 40
0.7714285714285709
 40
0.7857142857142849
 40
0.8
 40
0.8142857142857131
 40
0.8285714285714281
 40
0.842857142857142
 40
0.857142857142856
 40
0.87142857142857
 40
0.885714285714284
 40
0.9
 40
0.914285714285713
 40
0.928571428571427
 40
0.9428571428571411
 40
0.957142857142856
 40
0.97142857142857
 40
0.985714285714284
 40
1.0
 40
1.0
 40
1.0
 40
1.0
 40
1.0
 40
1.0
 10
-27.3057626520816
 20
-185.948103077312
 30
0.0
 41
1.0
 10
-27.3257627264783
 20
-186.084351935368
 30
0.0
 41
1.0
 10
-27.3613073623689
 20
-186.357154654774
 30
0.0
 41
1.0
 10
-27.4012581163139
 20
-186.767273722858
 30
0.0
 41
1.0
 10
-27.429172128629
 20
-187.315835977795
 30
0.0
 41
1.0
 10
-27.4297617511213
 20
-188.003889128059
 30
0.0
 41
1.0
 10
-27.4060428457819
 20
-188.693595682117
 30
0.0
 41
1.0
 10
-27.3677434358851
 20
-189.384255407203
 30
0.0
 41
1.0
 10
-27.3216638343275
 20
-190.075335777292
 30
0.0
 41
1.0
 10
-27.2700603492543
 20
-190.766578582854
 30
0.0
 41
1.0
 10
-27.2123554521336
 20
-191.457901195455
 30
0.0
 41
1.0
 10
-27.1463319913023
 20
-192.149330040318
 30
0.0
 41
1.0
 10
-27.0694277351397
 20
-192.840926997789
 30
0.0
 41
1.0
 10
-26.9802274966563
 20
-193.532705804829
 30
0.0
 41
1.0
 10
-26.8789743577904
 20
-194.224601406689
 30
0.0
 41
1.0
 10
-26.7668220316804
 20
-194.916507842321
 30
0.0
 41
1.0
 10
-26.6453925355998
 20
-195.608299405124
 30
0.0
 41
1.0
 10
-26.5162543744307
 20
-196.299856396068
 30
0.0
 41
1.0
 10
-26.3803259936976
 20
-196.991094323803
 30
0.0
 41
1.0
 10
-26.2378253539972
 20
-197.681966093784
 30
0.0
 41
1.0
 10
-26.0885702537087
 20
-198.372446729169
 30
0.0
 41
1.0
 10
-25.9321774205328
 20
-199.062523142489
 30
0.0
 41
1.0
 10
-25.7682872730503
 20
-199.752182643103
 30
0.0
 41
1.0
 10
-25.5968185208772
 20
-200.441399934029
 30
0.0
 41
1.0
 10
-25.4179473078807
 20
-201.130138016167
 30
0.0
 41
1.0
 10
-25.2319924158283
 20
-201.81835383609
 30
0.0
 41
1.0
 10
-25.039330094597
 20
-202.506002444241
 30
0.0
 41
1.0
 10
-24.8403015981121
 20
-203.193041529461
 30
0.0
 41
1.0
 10
-24.6351109519023
 20
-203.879436444019
 30
0.0
 41
1.0
 10
-24.4238471836017
 20
-204.565159021074
 30
0.0
 41
1.0
 10
-24.2065302490646
 20
-205.250185214284
 30
0.0
 41
1.0
 10
-23.9831492273496
 20
-205.934493129178
 30
0.0
 41
1.0
 10
-23.7537022300771
 20
-206.618060975168
 30
0.0
 41
1.0
 10
-23.5182396753023
 20
-207.300864854119
 30
0.0
 41
1.0
 10
-23.2768526092232
 20
-207.982879313604
 30
0.0
 41
1.0
 10
-23.0296546167739
 20
-208.664078227658
 30
0.0
 41
1.0
 10
-22.7767658741852
 20
-209.344435576799
 30
0.0
 41
1.0
 10
-22.518296909726
 20
-210.023926247394
 30
0.0
 41
1.0
 10
-22.2543310465696
 20
-210.702526907354
 30
0.0
 41
1.0
 10
-21.9849299563365
 20
-211.380215677519
 30
0.0
 41
1.0
 10
-21.7101414428644
 20
-212.056971693066
 30
0.0
 41
1.0
 10
-21.4300065639227
 20
-212.732774705592
 30
0.0
 41
1.0
 10
-21.144566771382
 20
-213.407604691881
 30
0.0
 41
1.0
 10
-20.8538718481579
 20
-214.081441424966
 30
0.0
 41
1.0
 10
-20.5579778211872
 20
-214.754264602929
 30
0.0
 41
1.0
 10
-20.256943711501
 20
-215.426054046677
 30
0.0
 41
1.0
 10
-19.9508286688852
 20
-216.096789887615
 30
0.0
 41
1.0
 10
-19.6396891500462
 20
-216.766452750894
 30
0.0
 41
1.0
 10
-19.3235756786494
 20
-217.435023992526
 30
0.0
 41
1.0
 10
-19.0025336629965
 20
-218.102485539869
 30
0.0
 41
1.0
 10
-18.6766050098986
 20
-218.768819665234
 30
0.0
 41
1.0
 10
-18.3458295446667
 20
-219.434008779654
 30
0.0
 41
1.0
 10
-18.0102464233153
 20
-220.098035252481
 30
0.0
 41
1.0
 10
-17.6698958948986
 20
-220.760881162708
 30
0.0
 41
1.0
 10
-17.3248190197677
 20
-221.422528488466
 30
0.0
 41
1.0
 10
-16.9750567063365
 20
-222.082959437447
 30
0.0
 41
1.0
 10
-16.6206489641961
 20
-222.742156767036
 30
0.0
 41
1.0
 10
-16.2616341948276
 20
-223.400104056148
 30
0.0
 41
1.0
 10
-15.8980482638234
 20
-224.056786162913
 30
0.0
 41
1.0
 10
-15.5299247745025
 20
-224.712188905818
 30
0.0
 41
1.0
 10
-15.1572961020123
 20
-225.36629827724
 30
0.0
 41
1.0
 10
-14.7801942868161
 20
-226.01909975603
 30
0.0
 41
1.0
 10
-14.3986518865333
 20
-226.670577699987
 30
0.0
 41
1.0
 10
-14.0127032008038
 20
-227.320714440698
 30
0.0
 41
1.0
 10
-13.6223841905572
 20
-227.969490509425
 30
0.0
 41
1.0
 10
-13.2277306827679
 20
-228.616886318947
 30
0.0
 41
1.0
 10
-12.8287770121957
 20
-229.262883527535
 30
0.0
 41
1.0
 10
-12.425554565524
 20
-229.907466457517
 30
0.0
 41
1.0
 10
-12.0180902782727
 20
-230.550623707451
 30
0.0
 41
1.0
 10
-11.6064055435406
 20
-231.192349064189
 30
0.0
 41
1.0
 10
-11.1905166030338
 20
-231.832639901807
 30
0.0
 41
1.0
 10
-10.8544510890063
 20
-232.343724787967
 30
0.0
 41
1.0
 10
-10.6005180695256
 20
-232.726393218395
 30
0.0
 41
1.0
 10
-10.4303923859726
 20
-232.981218830317
 30
0.0
 41
1.0
 10
-10.3451202932341
 20
-233.108559967494
 30
0.0
 41
1.0
  0
ARC
  5
100002AD
102
{ACAD_XDICTIONARY
360
100002AE
102
}
330
1F
100
AcDbEntity
  8
VISIBLE
100
AcDbCircle
 10
0.0
 20
-0.0000000000098055
 30
0.0
 40
233.33799999999
100
AcDbArc
 50
267.4589390306315
 51
272.5410609693685
  0
SPLINE
  5
100002B3
102
{ACAD_XDICTIONARY
360
100002B4
102
}
330
1F
100
AcDbEntity
  8
VISIBLE
100
AcDbSpline
210
0.0
220
0.0
230
1.0
 70
    12
 71
     5
 72
    81
 73
    75
 74
     0
 42
0.0000000001
 43
0.00000001
 40
0.0
 40
0.0
 40
0.0
 40
0.0
 40
0.0
 40
0.0
 40
0.0142857142857143
 40
0.0285714285714286
 40
0.0428571428571429
 40
0.0571428571428571
 40
0.0714285714285714
 40
0.0857142857142857
 40
0.1
 40
0.114285714285714
 40
0.128571428571429
 40
0.142857142857143
 40
0.157142857142857
 40
0.171428571428571
 40
0.185714285714286
 40
0.2
 40
0.214285714285714
 40
0.228571428571429
 40
0.242857142857143
 40
0.257142857142857
 40
0.271428571428571
 40
0.285714285714286
 40
0.3
 40
0.314285714285714
 40
0.328571428571429
 40
0.342857142857143
 40
0.357142857142857
 40
0.371428571428571
 40
0.385714285714286
 40
0.4
 40
0.414285714285714
 40
0.428571428571429
 40
0.442857142857143
 40
0.457142857142857
 40
0.471428571428572
 40
0.485714285714286
 40
0.5
 40
0.514285714285714
 40
0.528571428571429
 40
0.542857142857143
 40
0.5571428571428569
 40
0.571428571428571
 40
0.585714285714286
 40
0.6
 40
0.614285714285714
 40
0.628571428571428
 40
0.642857142857142
 40
0.6571428571428569
 40
0.6714285714285709
 40
0.6857142857142849
 40
0.7
 40
0.714285714285714
 40
0.728571428571428
 40
0.742857142857142
 40
0.7571428571428559
 40
0.7714285714285709
 40
0.7857142857142849
 40
0.8
 40
0.8142857142857131
 40
0.8285714285714281
 40
0.842857142857142
 40
0.857142857142856
 40
0.87142857142857
 40
0.885714285714284
 40
0.9
 40
0.914285714285713
 40
0.928571428571427
 40
0.9428571428571411
 40
0.957142857142856
 40
0.97142857142857
 40
0.985714285714284
 40
1.0
 40
1.0
 40
1.0
 40
1.0
 40
1.0
 40
1.0
 10
27.3057626520816
 20
-185.948103077312
 30
0.0
 41
1.0
 10
27.3257627264783
 20
-186.084351935368
 30
0.0
 41
1.0
 10
27.3613073623689
 20
-186.357154654774
 30
0.0
 41
1.0
 10
27.4012581163139
 20
-186.767273722858
 30
0.0
 41
1.0
 10
27.429172128629
 20
-187.315835977795
 30
0.0
 41
1.0
 10
27.4297617511213
 20
-188.003889128059
 30
0.0
 41
1.0
 10
27.406042845782
 20
-188.693595682117
 30
0.0
 41
1.0
 10
27.3677434358851
 20
-189.384255407203
 30
0.0
 41
1.0
 10
27.3216638343276
 20
-190.075335777292
 30
0.0
 41
1.0
 10
27.2700603492543
 20
-190.766578582854
 30
0.0
 41
1.0
 10
27.2123554521336
 20
-191.457901195455
 30
0.0
 41
1.0
 10
27.1463319913024
 20
-192.149330040318
 30
0.0
 41
1.0
 10
27.0694277351397
 20
-192.840926997789
 30
0.0
 41
1.0
 10
26.9802274966564
 20
-193.532705804829
 30
0.0
 41
1.0
 10
26.8789743577904
 20
-194.224601406689
 30
0.0
 41
1.0
 10
26.7668220316805
 20
-194.916507842321
 30
0.0
 41
1.0
 10
26.6453925355999
 20
-195.608299405124
 30
0.0
 41
1.0
 10
26.5162543744307
 20
-196.299856396068
 30
0.0
 41
1.0
 10
26.3803259936977
 20
-196.991094323803
 30
0.0
 41
1.0
 10
26.2378253539972
 20
-197.681966093784
 30
0.0
 41
1.0
 10
26.0885702537087
 20
-198.372446729169
 30
0.0
 41
1.0
 10
25.9321774205328
 20
-199.062523142489
 30
0.0
 41
1.0
 10
25.7682872730504
 20
-199.752182643103
 30
0.0
 41
1.0
 10
25.5968185208772
 20
-200.441399934029
 30
0.0
 41
1.0
 10
25.4179473078807
 20
-201.130138016167
 30
0.0
 41
1.0
 10
25.2319924158283
 20
-201.81835383609
 30
0.0
 41
1.0
 10
25.039330094597
 20
-202.506002444241
 30
0.0
 41
1.0
 10
24.8403015981121
 20
-203.193041529461
 30
0.0
 41
1.0
 10
24.6351109519023
 20
-203.879436444019
 30
0.0
 41
1.0
 10
24.4238471836017
 20
-204.565159021074
 30
0.0
 41
1.0
 10
24.2065302490646
 20
-205.250185214284
 30
0.0
 41
1.0
 10
23.9831492273497
 20
-205.934493129178
 30
0.0
 41
1.0
 10
23.7537022300771
 20
-206.618060975168
 30
0.0
 41
1.0
 10
23.5182396753024
 20
-207.300864854119
 30
0.0
 41
1.0
 10
23.2768526092232
 20
-207.982879313604
 30
0.0
 41
1.0
 10
23.0296546167739
 20
-208.664078227658
 30
0.0
 41
1.0
 10
22.7767658741852
 20
-209.344435576799
 30
0.0
 41
1.0
 10
22.518296909726
 20
-210.023926247394
 30
0.0
 41
1.0
 10
22.2543310465696
 20
-210.702526907354
 30
0.0
 41
1.0
 10
21.9849299563365
 20
-211.380215677519
 30
0.0
 41
1.0
 10
21.7101414428645
 20
-212.056971693066
 30
0.0
 41
1.0
 10
21.4300065639227
 20
-212.732774705592
 30
0.0
 41
1.0
 10
21.144566771382
 20
-213.407604691881
 30
0.0
 41
1.0
 10
20.853871848158
 20
-214.081441424966
 30
0.0
 41
1.0
 10
20.5579778211872
 20
-214.754264602929
 30
0.0
 41
1.0
 10
20.2569437115011
 20
-215.426054046677
 30
0.0
 41
1.0
 10
19.9508286688853
 20
-216.096789887615
 30
0.0
 41
1.0
 10
19.6396891500463
 20
-216.766452750894
 30
0.0
 41
1.0
 10
19.3235756786494
 20
-217.435023992526
 30
0.0
 41
1.0
 10
19.0025336629965
 20
-218.102485539869
 30
0.0
 41
1.0
 10
18.6766050098986
 20
-218.768819665234
 30
0.0
 41
1.0
 10
18.3458295446668
 20
-219.434008779654
 30
0.0
 41
1.0
 10
18.0102464233153
 20
-220.098035252481
 30
0.0
 41
1.0
 10
17.6698958948987
 20
-220.760881162708
 30
0.0
 41
1.0
 10
17.3248190197678
 20
-221.422528488466
 30
0.0
 41
1.0
 10
16.9750567063365
 20
-222.082959437447
 30
0.0
 41
1.0
 10
16.6206489641961
 20
-222.742156767036
 30
0.0
 41
1.0
 10
16.2616341948277
 20
-223.400104056148
 30
0.0
 41
1.0
 10
15.8980482638235
 20
-224.056786162913
 30
0.0
 41
1.0
 10
15.5299247745025
 20
-224.712188905818
 30
0.0
 41
1.0
 10
15.1572961020124
 20
-225.36629827724
 30
0.0
 41
1.0
 10
14.7801942868162
 20
-226.01909975603
 30
0.0
 41
1.0
 10
14.3986518865334
 20
-226.670577699987
 30
0.0
 41
1.0
 10
14.0127032008039
 20
-227.320714440698
 30
0.0
 41
1.0
 10
13.6223841905572
 20
-227.969490509425
 30
0.0
 41
1.0
 10
13.227730682768
 20
-228.616886318947
 30
0.0
 41
1.0
 10
12.8287770121957
 20
-229.262883527535
 30
0.0
 41
1.0
 10
12.425554565524
 20
-229.907466457517
 30
0.0
 41
1.0
 10
12.0180902782727
 20
-230.550623707451
 30
0.0
 41
1.0
 10
11.6064055435406
 20
-231.192349064189
 30
0.0
 41
1.0
 10
11.1905166030338
 20
-231.832639901807
 30
0.0
 41
1.0
 10
10.8544510890063
 20
-232.343724787967
 30
0.0
 41
1.0
 10
10.6005180695256
 20
-232.726393218395
 30
0.0
 41
1.0
 10
10.4303923859726
 20
-232.981218830317
 30
0.0
 41
1.0
 10
10.3451202932341
 20
-233.108559967494
 30
0.0
 41
1.0
  0
LINE
  5
100002B7
102
{ACAD_XDICTIONARY
360
100002B8
102
}
330
1F
100
AcDbEntity
  8
VISIBLE
100
AcDbLine
 10
23.68564313227555
 20
-161.286337284994
 30
0.0
 11
27.3057626520816
 21
-185.948103077312
 31
0.0
  0
ARC
  5
100002BB
102
{ACAD_XDICTIONARY
360
100002BC
102
}
330
1F
100
AcDbEntity
  8
VISIBLE
100
AcDbCircle
 10
25.2563113107624
 20
-161.055777698143
 30
0.0
 40
1.5875
100
AcDbArc
 50
98.91237840193763
 51
188.3508521612254
  0
ARC
  5
100002C1
102
{ACAD_XDICTIONARY
360
100002C2
102
}
330
1F
100
AcDbEntity
  8
VISIBLE
100
AcDbCircle
 10
0.0
 20
0.0
 30
0.0
 40
161.436562
100
AcDbArc
 50
278.9123784019358
 51
291.0876215980643
  0
ARC
  5
100002C7
102
{ACAD_XDICTIONARY
360
100002C8
102
}
330
1F
100
AcDbEntity
  8
VISIBLE
100
AcDbCircle
 10
58.6552816480631
 20
-152.106550568232
 30
0.0
 40
1.5875
100
AcDbArc
 50
21.64914783879694
 51
111.0876215980669
  0
LINE
  5
100002CD
102
{ACAD_XDICTIONARY
360
100002CE
102
}
330
1F
100
AcDbEntity
  8
VISIBLE
100
AcDbLine
 10
60.13079998497359
 20
-151.520886938287
 30
0.0
 11
69.3265674122448
 21
-174.68866237652
 31
0.0
  0
SPLINE
  5
100002D1
102
{ACAD_XDICTIONARY
360
100002D2
102
}
330
1F
100
AcDbEntity
  8
VISIBLE
100
AcDbSpline
210
0.0
220
0.0
230
1.0
 70
    12
 71
     5
 72
    81
 73
    75
 74
     0
 42
0.0000000001
 43
0.00000001
 40
0.0
 40
0.0
 40
0.0
 40
0.0
 40
0.0
 40
0.0
 40
0.0142857142857143
 40
0.0285714285714286
 40
0.0428571428571429
 40
0.0571428571428571
 40
0.0714285714285714
 40
0.0857142857142857
 40
0.1
 40
0.114285714285714
 40
0.128571428571429
 40
0.142857142857143
 40
0.157142857142857
 40
0.171428571428571
 40
0.185714285714286
 40
0.2
 40
0.214285714285714
 40
0.228571428571429
 40
0.242857142857143
 40
0.257142857142857
 40
0.271428571428571
 40
0.285714285714286
 40
0.3
 40
0.314285714285714
 40
0.328571428571429
 40
0.342857142857143
 40
0.357142857142857
 40
0.371428571428571
 40
0.385714285714286
 40
0.4
 40
0.414285714285714
 40
0.428571428571429
 40
0.442857142857143
 40
0.457142857142857
 40
0.471428571428572
 40
0.485714285714286
 40
0.5
 40
0.514285714285714
 40
0.528571428571429
 40
0.542857142857143
 40
0.5571428571428569
 40
0.571428571428571
 40
0.585714285714286
 40
0.6
 40
0.614285714285714
 40
0.628571428571428
 40
0.642857142857142
 40
0.6571428571428569
 40
0.6714285714285709
 40
0.6857142857142849
 40
0.7
 40
0.714285714285714
 40
0.728571428571428
 40
0.742857142857142
 40
0.7571428571428559
 40
0.7714285714285709
 40
0.7857142857142849
 40
0.8
 40
0.8142857142857131
 40
0.8285714285714281
 40
0.842857142857142
 40
0.857142857142856
 40
0.87142857142857
 40
0.885714285714284
 40
0.9
 40
0.914285714285713
 40
0.928571428571427
 40
0.9428571428571411
 40
0.957142857142856
 40
0.97142857142857
 40
0.985714285714284
 40
1.0
 40
1.0
 40
1.0
 40
1.0
 40
1.0
 40
1.0
 10
69.326567412245
 20
-174.68866237652
 30
0.0
 41
1.0
 10
69.37737126876779
 20
-174.816657386032
 30
0.0
 41
1.0
 10
69.48299007082119
 20
-175.070683789204
 30
0.0
 41
1.0
 10
69.65345123704688
 20
-175.445832697714
 30
0.0
 41
1.0
 10
69.90355812072869
 20
-175.934858552204
 30
0.0
 41
1.0
 10
70.24707406780401
 20
-176.531024870733
 30
0.0
 41
1.0
 10
70.6124685194065
 20
-177.116468815034
 30
0.0
 41
1.0
 10
70.9909666438703
 20
-177.695447977381
 30
0.0
 41
1.0
 10
71.37641293445981
 20
-178.270901333156
 30
0.0
 41
1.0
 10
71.76672426623831
 20
-178.84373342042
 30
0.0
 41
1.0
 10
72.16235947936771
 20
-179.413583916582
 30
0.0
 41
1.0
 10
72.56525189612489
 20
-179.979367130727
 30
0.0
 41
1.0
 10
72.9776514143566
 20
-180.539855536996
 30
0.0
 41
1.0
 10
73.4007904904265
 20
-181.09435343845
 30
0.0
 41
1.0
 10
73.8344260818274
 20
-181.642926036994
 30
0.0
 41
1.0
 10
74.2775060631483
 20
-182.186058424239
 30
0.0
 41
1.0
 10
74.72856287292419
 20
-182.72445274371
 30
0.0
 41
1.0
 10
75.186178296567
 20
-183.258789585448
 30
0.0
 41
1.0
 10
75.6495146912441
 20
-183.789455000558
 30
0.0
 41
1.0
 10
76.118359750271
 20
-184.31651718427
 30
0.0
 41
1.0
 10
76.5928587764579
 20
-184.83986340519
 30
0.0
 41
1.0
 10
77.0733371496179
 20
-185.35929069309
 30
0.0
 41
1.0
 10
77.5600999310745
 20
-185.874608266841
 30
0.0
 41
1.0
 10
78.05320487187501
 20
-186.385753573425
 30
0.0
 41
1.0
 10
78.55248092740449
 20
-186.892782642611
 30
0.0
 41
1.0
 10
79.05763049784159
 20
-187.395817579925
 30
0.0
 41
1.0
 10
79.5683052664554
 20
-187.895007582845
 30
0.0
 41
1.0
 10
80.08418854309821
 20
-188.390486635796
 30
0.0
 41
1.0
 10
80.60508631261399
 20
-188.882326745727
 30
0.0
 41
1.0
 10
81.1309073913891
 20
-189.370548033255
 30
0.0
 41
1.0
 10
81.66162247397538
 20
-189.855139651563
 30
0.0
 41
1.0
 10
82.19723007095119
 20
-190.336077179015
 30
0.0
 41
1.0
 10
82.73772092240621
 20
-190.813340800216
 30
0.0
 41
1.0
 10
83.2830394159568
 20
-191.286935027803
 30
0.0
 41
1.0
 10
83.8330939770684
 20
-191.756883342425
 30
0.0
 41
1.0
 10
84.38777317532109
 20
-192.223219910802
 30
0.0
 41
1.0
 10
84.94695992530448
 20
-192.685982287515
 30
0.0
 41
1.0
 10
85.5105459499136
 20
-193.145203987655
 30
0.0
 41
1.0
 10
86.078447423119
 20
-193.600906466628
 30
0.0
 41
1.0
 10
86.6505999961506
 20
-194.053101612333
 30
0.0
 41
1.0
 10
87.22695183725878
 20
-194.501795257225
 30
0.0
 41
1.0
 10
87.80745726517189
 20
-194.946990394556
 30
0.0
 41
1.0
 10
88.3920703699074
 20
-195.388690409647
 30
0.0
 41
1.0
 10
88.9807379247133
 20
-195.82690267689
 30
0.0
 41
1.0
 10
89.57340125787951
 20
-196.261637627776
 30
0.0
 41
1.0
 10
90.169999166147
 20
-196.692907297212
 30
0.0
 41
1.0
 10
90.770470490002
 20
-197.120724053385
 30
0.0
 41
1.0
 10
91.3747566490775
 20
-197.545099345537
 30
0.0
 41
1.0
 10
91.9828045666017
 20
-197.966042289331
 30
0.0
 41
1.0
 10
92.59456588151039
 20
-198.383559937553
 30
0.0
 41
1.0
 10
93.2099954375971
 20
-198.797657890979
 30
0.0
 41
1.0
 10
93.82904995064669
 20
-199.208340829772
 30
0.0
 41
1.0
 10
94.4516866952316
 20
-199.615613063349
 30
0.0
 41
1.0
 10
95.0778618541455
 20
-200.019479196192
 30
0.0
 41
1.0
 10
95.7075308571465
 20
-200.419944151079
 30
0.0
 41
1.0
 10
96.3406493803549
 20
-200.817012973627
 30
0.0
 41
1.0
 10
96.9771741531407
 20
-201.210690736087
 30
0.0
 41
1.0
 10
97.6170637083036
 20
-201.600982418125
 30
0.0
 41
1.0
 10
98.26027941439419
 20
-201.987892839292
 30
0.0
 41
1.0
 10
98.9067850793284
 20
-202.371426519697
 30
0.0
 41
1.0
 10
99.5565456615944
 20
-202.751587515957
 30
0.0
 41
1.0
 10
100.209526152763
 20
-203.12837927262
 30
0.0
 41
1.0
 10
100.865690536007
 20
-203.50180452195
 30
0.0
 41
1.0
 10
101.525000272761
 20
-203.871865112474
 30
0.0
 41
1.0
 10
102.187414485579
 20
-204.238562164236
 30
0.0
 41
1.0
 10
102.852892353778
 20
-204.601896627691
 30
0.0
 41
1.0
 10
103.52139497172
 20
-204.961869785816
 30
0.0
 41
1.0
 10
104.192887318905
 20
-205.31848375469
 30
0.0
 41
1.0
 10
104.867340367766
 20
-205.671742128135
 30
0.0
 41
1.0
 10
105.544732484764
 20
-206.021650221957
 30
0.0
 41
1.0
 10
106.225048291205
 20
-206.368213882892
 30
0.0
 41
1.0
 10
106.771632006768
 20
-206.642793620782
 30
0.0
 41
1.0
 10
107.182878667712
 20
-206.847227693019
 30
0.0
 41
1.0
 10
107.457624637467
 20
-206.982850304702
 30
0.0
 41
1.0
 10
107.5951430046
 20
-207.050494918075
 30
0.0
 41
1.0
  0
ARC
  5
100002D5
102
{ACAD_XDICTIONARY
360
100002D6
102
}
330
1F
100
AcDbEntity
  8
VISIBLE
100
AcDbCircle
 10
0.0000000000049027
 20
-0.0000000000084918
 30
0.0
 40
233.33799999999
100
AcDbArc
 50
297.4589390306314
 51
302.5410609693684
  0
SPLINE
  5
100002DB
102
{ACAD_XDICTIONARY
360
100002DC
102
}
330
1F
100
AcDbEntity
  8
VISIBLE
100
AcDbSpline
210
0.0
220
0.0
230
1.0
 70
    12
 71
     5
 72
    81
 73
    75
 74
     0
 42
0.0000000001
 43
0.00000001
 40
0.0
 40
0.0
 40
0.0
 40
0.0
 40
0.0
 40
0.0
 40
0.0142857142857143
 40
0.0285714285714286
 40
0.0428571428571429
 40
0.0571428571428571
 40
0.0714285714285714
 40
0.0857142857142857
 40
0.1
 40
0.114285714285714
 40
0.128571428571429
 40
0.142857142857143
 40
0.157142857142857
 40
0.171428571428571
 40
0.185714285714286
 40
0.2
 40
0.214285714285714
 40
0.228571428571429
 40
0.242857142857143
 40
0.257142857142857
 40
0.271428571428571
 40
0.285714285714286
 40
0.3
 40
0.314285714285714
 40
0.328571428571429
 40
0.342857142857143
 40
0.357142857142857
 40
0.371428571428571
 40
0.385714285714286
 40
0.4
 40
0.414285714285714
 40
0.428571428571429
 40
0.442857142857143
 40
0.457142857142857
 40
0.471428571428572
 40
0.485714285714286
 40
0.5
 40
0.514285714285714
 40
0.528571428571429
 40
0.542857142857143
 40
0.5571428571428569
 40
0.571428571428571
 40
0.585714285714286
 40
0.6
 40
0.614285714285714
 40
0.628571428571428
 40
0.642857142857142
 40
0.6571428571428569
 40
0.6714285714285709
 40
0.6857142857142849
 40
0.7
 40
0.714285714285714
 40
0.728571428571428
 40
0.742857142857142
 40
0.7571428571428559
 40
0.7714285714285709
 40
0.7857142857142849
 40
0.8
 40
0.8142857142857131
 40
0.8285714285714281
 40
0.842857142857142
 40
0.857142857142856
 40
0.87142857142857
 40
0.885714285714284
 40
0.9
 40
0.914285714285713
 40
0.928571428571427
 40
0.9428571428571411
 40
0.957142857142856
 40
0.97142857142857
 40
0.985714285714284
 40
1.0
 40
1.0
 40
1.0
 40
1.0
 40
1.0
 40
1.0
 10
116.621535665067
 20
-147.382899724439
 30
0.0
 41
1.0
 10
116.7069806666
 20
-147.490894659553
 30
0.0
 41
1.0
 10
116.874164583952
 20
-147.709376426835
 30
0.0
 41
1.0
 10
117.113822485812
 20
-148.0445745814
 30
0.0
 41
1.0
 10
117.412277857066
 20
-148.505686423575
 30
0.0
 41
1.0
 10
117.756815060256
 20
-149.101263119612
 30
0.0
 41
1.0
 10
118.08112716271
 20
-149.710425969252
 30
0.0
 41
1.0
 10
118.393288763333
 20
-150.327704541496
 30
0.0
 41
1.0
 10
118.698922842832
 20
-150.949237498828
 30
0.0
 41
1.0
 10
118.999854316616
 20
-151.573673071165
 30
0.0
 41
1.0
 10
119.295541716087
 20
-152.201228464448
 30
0.0
 41
1.0
 10
119.584078144193
 20
-152.833035139425
 30
0.0
 41
1.0
 10
119.863275583433
 20
-153.470427801856
 30
0.0
 41
1.0
 10
120.131915314402
 20
-154.114125941793
 30
0.0
 41
1.0
 10
120.390175324861
 20
-154.763951679204
 30
0.0
 41
1.0
 10
120.639001779173
 20
-155.419236392559
 30
0.0
 41
1.0
 10
120.8797365322
 20
-156.07906020811
 30
0.0
 41
1.0
 10
121.113678099501
 20
-156.742535211017
 30
0.0
 41
1.0
 10
121.341579632558
 20
-157.409129006861
 30
0.0
 41
1.0
 10
121.563606343513
 20
-158.078691830272
 30
0.0
 41
1.0
 10
121.779587952711
 20
-158.751293151481
 30
0.0
 41
1.0
 10
121.989185992871
 20
-159.427113272557
 30
0.0
 41
1.0
 10
122.192082712028
 20
-160.106320993791
 30
0.0
 41
1.0
 10
122.388195062154
 20
-160.788935052547
 30
0.0
 41
1.0
 10
122.577657088762
 20
-161.47483533473
 30
0.0
 41
1.0
 10
122.760723338249
 20
-162.163825164097
 30
0.0
 41
1.0
 10
122.937697177786
 20
-162.855677488248
 30
0.0
 41
1.0
 10
123.108852986363
 20
-163.550185037683
 30
0.0
 41
1.0
 10
123.274350131405
 20
-164.247215793824
 30
0.0
 41
1.0
 10
123.434251629685
 20
-164.946700849653
 30
0.0
 41
1.0
 10
123.588562740308
 20
-165.648609402498
 30
0.0
 41
1.0
 10
123.737263058227
 20
-166.352927951665
 30
0.0
 41
1.0
 10
123.880340052762
 20
-167.059638570139
 30
0.0
 41
1.0
 10
124.017825438163
 20
-167.768695352501
 30
0.0
 41
1.0
 10
124.149785336535
 20
-168.480030733202
 30
0.0
 41
1.0
 10
124.276305052337
 20
-169.193565294028
 30
0.0
 41
1.0
 10
124.397475651494
 20
-169.90921641333
 30
0.0
 41
1.0
 10
124.51338029748
 20
-170.626907077929
 30
0.0
 41
1.0
 10
124.624079484235
 20
-171.346575420058
 30
0.0
 41
1.0
 10
124.729615681368
 20
-172.068171655997
 30
0.0
 41
1.0
 10
124.830019855807
 20
-172.79165381436
 30
0.0
 41
1.0
 10
124.925317440421
 20
-173.516983830633
 30
0.0
 41
1.0
 10
125.015534321974
 20
-174.244123638265
 30
0.0
 41
1.0
 10
125.100703500253
 20
-174.973030828732
 30
0.0
 41
1.0
 10
125.18086334505
 20
-175.703659806588
 30
0.0
 41
1.0
 10
125.25605488053
 20
-176.435963585711
 30
0.0
 41
1.0
 10
125.326319397613
 20
-177.1698953845
 30
0.0
 41
1.0
 10
125.391696101817
 20
-177.905410195491
 30
0.0
 41
1.0
 10
125.452219425925
 20
-178.642466610682
 30
0.0
 41
1.0
 10
125.507919658358
 20
-179.381026274556
 30
0.0
 41
1.0
 10
125.558824227637
 20
-180.12105288108
 30
0.0
 41
1.0
 10
125.604958829008
 20
-180.862511285105
 30
0.0
 41
1.0
 10
125.646348557249
 20
-181.605366640034
 30
0.0
 41
1.0
 10
125.683019308563
 20
-182.349583301293
 30
0.0
 41
1.0
 10
125.71499763132
 20
-183.095125131312
 30
0.0
 41
1.0
 10
125.742310057092
 20
-183.84195626729
 30
0.0
 41
1.0
 10
125.764982613895
 20
-184.590041771891
 30
0.0
 41
1.0
 10
125.783040347845
 20
-185.339348223297
 30
0.0
 41
1.0
 10
125.796506748519
 20
-186.089844575468
 30
0.0
 41
1.0
 10
125.805403826489
 20
-186.841501745195
 30
0.0
 41
1.0
 10
125.809752615645
 20
-187.594291413945
 30
0.0
 41
1.0
 10
125.809573603268
 20
-188.348184985803
 30
0.0
 41
1.0
 10
125.80488716398
 20
-189.103152635417
 30
0.0
 41
1.0
 10
125.795714167936
 20
-189.85916191167
 30
0.0
 41
1.0
 10
125.782076023847
 20
-190.616177973679
 30
0.0
 41
1.0
 10
125.763993965169
 20
-191.374165944923
 30
0.0
 41
1.0
 10
125.741488555815
 20
-192.13309277362
 30
0.0
 41
1.0
 10
125.714579138612
 20
-192.892929189166
 30
0.0
 41
1.0
 10
125.683283339684
 20
-193.653651849863
 30
0.0
 41
1.0
 10
125.647616579425
 20
-194.415244678417
 30
0.0
 41
1.0
 10
125.607591610603
 20
-195.177697279858
 30
0.0
 41
1.0
 10
125.572092781198
 20
-195.788342531776
 30
0.0
 41
1.0
 10
125.543514550683
 20
-196.246709623494
 30
0.0
 41
1.0
 10
125.523594192851
 20
-196.55245791873
 30
0.0
 41
1.0
 10
125.513416962893
 20
-196.705374624841
 30
0.0
 41
1.0
  0
LINE
  5
100002DF
102
{ACAD_XDICTIONARY
360
100002E0
102
}
330
1F
100
AcDbEntity
  8
VISIBLE
100
AcDbLine
 10
101.1555373000202
 20
-127.8352438060118
 30
0.0
 11
116.6215356650674
 21
-147.3828997244386
 31
0.0
  0
ARC
  5
100002E3
102
{ACAD_XDICTIONARY
360
100002E4
102
}
330
1F
100
AcDbEntity
  8
VISIBLE
100
AcDbCircle
 10
102.40049605008
 20
-126.85023925747
 30
0.0
 40
1.5875
100
AcDbArc
 50
128.9123784019277
 51
218.3508521612071
  0
ARC
  5
100002E9
102
{ACAD_XDICTIONARY
360
100002EA
102
}
330
1F
100
AcDbEntity
  8
VISIBLE
100
AcDbCircle
 10
0.0
 20
0.0
 30
0.0
 40
161.436562
100
AcDbArc
 50
308.9123784019359
 51
321.0876215980641
  0
ARC
  5
100002EF
102
{ACAD_XDICTIONARY
360
100002F0
102
}
330
1F
100
AcDbEntity
  8
VISIBLE
100
AcDbCircle
 10
126.85023925747
 20
-102.40049605008
 30
0.0
 40
1.5875
100
AcDbArc
 50
51.64914783879293
 51
141.0876215980723
  0
LINE
  5
100002F5
102
{ACAD_XDICTIONARY
360
100002F6
102
}
330
1F
100
AcDbEntity
  8
VISIBLE
100
AcDbLine
 10
127.8352438060118
 20
-101.1555373000202
 30
0.0
 11
147.3828997244386
 21
-116.6215356650674
 31
0.0
  0
SPLINE
  5
100002F9
102
{ACAD_XDICTIONARY
360
100002FA
102
}
330
1F
100
AcDbEntity
  8
VISIBLE
100
AcDbSpline
210
0.0
220
0.0
230
1.0
 70
    12
 71
     5
 72
    81
 73
    75
 74
     0
 42
0.0000000001
 43
0.00000001
 40
0.0
 40
0.0
 40
0.0
 40
0.0
 40
0.0
 40
0.0
 40
0.0142857142857143
 40
0.0285714285714286
 40
0.0428571428571429
 40
0.0571428571428571
 40
0.0714285714285714
 40
0.0857142857142857
 40
0.1
 40
0.114285714285714
 40
0.128571428571429
 40
0.142857142857143
 40
0.157142857142857
 40
0.171428571428571
 40
0.185714285714286
 40
0.2
 40
0.214285714285714
 40
0.228571428571429
 40
0.242857142857143
 40
0.257142857142857
 40
0.271428571428571
 40
0.285714285714286
 40
0.3
 40
0.314285714285714
 40
0.328571428571429
 40
0.342857142857143
 40
0.357142857142857
 40
0.371428571428571
 40
0.385714285714286
 40
0.4
 40
0.414285714285714
 40
0.428571428571429
 40
0.442857142857143
 40
0.457142857142857
 40
0.471428571428572
 40
0.485714285714286
 40
0.5
 40
0.514285714285714
 40
0.528571428571429
 40
0.542857142857143
 40
0.5571428571428569
 40
0.571428571428571
 40
0.585714285714286
 40
0.6
 40
0.614285714285714
 40
0.628571428571428
 40
0.642857142857142
 40
0.6571428571428569
 40
0.6714285714285709
 40
0.6857142857142849
 40
0.7
 40
0.714285714285714
 40
0.728571428571428
 40
0.742857142857142
 40
0.7571428571428559
 40
0.7714285714285709
 40
0.7857142857142849
 40
0.8
 40
0.8142857142857131
 40
0.8285714285714281
 40
0.842857142857142
 40
0.857142857142856
 40
0.87142857142857
 40
0.885714285714284
 40
0.9
 40
0.914285714285713
 40
0.928571428571427
 40
0.9428571428571411
 40
0.957142857142856
 40
0.97142857142857
 40
0.985714285714284
 40
1.0
 40
1.0
 40
1.0
 40
1.0
 40
1.0
 40
1.0
 10
147.382899724439
 20
-116.621535665067
 30
0.0
 41
1.0
 10
147.490894659553
 20
-116.7069806666
 30
0.0
 41
1.0
 10
147.709376426835
 20
-116.874164583952
 30
0.0
 41
1.0
 10
148.0445745814
 20
-117.113822485812
 30
0.0
 41
1.0
 10
148.505686423575
 20
-117.412277857066
 30
0.0
 41
1.0
 10
149.101263119612
 20
-117.756815060256
 30
0.0
 41
1.0
 10
149.710425969252
 20
-118.08112716271
 30
0.0
 41
1.0
 10
150.327704541496
 20
-118.393288763333
 30
0.0
 41
1.0
 10
150.949237498828
 20
-118.698922842832
 30
0.0
 41
1.0
 10
151.573673071165
 20
-118.999854316616
 30
0.0
 41
1.0
 10
152.201228464448
 20
-119.295541716087
 30
0.0
 41
1.0
 10
152.833035139425
 20
-119.584078144193
 30
0.0
 41
1.0
 10
153.470427801856
 20
-119.863275583433
 30
0.0
 41
1.0
 10
154.114125941793
 20
-120.131915314402
 30
0.0
 41
1.0
 10
154.763951679204
 20
-120.390175324861
 30
0.0
 41
1.0
 10
155.419236392559
 20
-120.639001779173
 30
0.0
 41
1.0
 10
156.07906020811
 20
-120.8797365322
 30
0.0
 41
1.0
 10
156.742535211017
 20
-121.113678099501
 30
0.0
 41
1.0
 10
157.409129006861
 20
-121.341579632558
 30
0.0
 41
1.0
 10
158.078691830272
 20
-121.563606343513
 30
0.0
 41
1.0
 10
158.751293151481
 20
-121.779587952711
 30
0.0
 41
1.0
 10
159.427113272557
 20
-121.989185992871
 30
0.0
 41
1.0
 10
160.106320993791
 20
-122.192082712028
 30
0.0
 41
1.0
 10
160.788935052547
 20
-122.388195062154
 30
0.0
 41
1.0
 10
161.47483533473
 20
-122.577657088762
 30
0.0
 41
1.0
 10
162.163825164097
 20
-122.760723338249
 30
0.0
 41
1.0
 10
162.855677488248
 20
-122.937697177786
 30
0.0
 41
1.0
 10
163.550185037683
 20
-123.108852986363
 30
0.0
 41
1.0
 10
164.247215793824
 20
-123.274350131405
 30
0.0
 41
1.0
 10
164.946700849653
 20
-123.434251629685
 30
0.0
 41
1.0
 10
165.648609402498
 20
-123.588562740308
 30
0.0
 41
1.0
 10
166.352927951665
 20
-123.737263058227
 30
0.0
 41
1.0
 10
167.059638570139
 20
-123.880340052762
 30
0.0
 41
1.0
 10
167.768695352501
 20
-124.017825438163
 30
0.0
 41
1.0
 10
168.480030733202
 20
-124.149785336535
 30
0.0
 41
1.0
 10
169.193565294028
 20
-124.276305052337
 30
0.0
 41
1.0
 10
169.90921641333
 20
-124.397475651494
 30
0.0
 41
1.0
 10
170.626907077929
 20
-124.51338029748
 30
0.0
 41
1.0
 10
171.346575420058
 20
-124.624079484235
 30
0.0
 41
1.0
 10
172.068171655997
 20
-124.729615681368
 30
0.0
 41
1.0
 10
172.79165381436
 20
-124.830019855807
 30
0.0
 41
1.0
 10
173.516983830633
 20
-124.92531744042
 30
0.0
 41
1.0
 10
174.244123638265
 20
-125.015534321974
 30
0.0
 41
1.0
 10
174.973030828732
 20
-125.100703500253
 30
0.0
 41
1.0
 10
175.703659806588
 20
-125.18086334505
 30
0.0
 41
1.0
 10
176.435963585711
 20
-125.25605488053
 30
0.0
 41
1.0
 10
177.1698953845
 20
-125.326319397613
 30
0.0
 41
1.0
 10
177.905410195491
 20
-125.391696101817
 30
0.0
 41
1.0
 10
178.642466610682
 20
-125.452219425925
 30
0.0
 41
1.0
 10
179.381026274556
 20
-125.507919658358
 30
0.0
 41
1.0
 10
180.12105288108
 20
-125.558824227637
 30
0.0
 41
1.0
 10
180.862511285105
 20
-125.604958829008
 30
0.0
 41
1.0
 10
181.605366640034
 20
-125.646348557249
 30
0.0
 41
1.0
 10
182.349583301293
 20
-125.683019308563
 30
0.0
 41
1.0
 10
183.095125131312
 20
-125.71499763132
 30
0.0
 41
1.0
 10
183.84195626729
 20
-125.742310057092
 30
0.0
 41
1.0
 10
184.590041771891
 20
-125.764982613895
 30
0.0
 41
1.0
 10
185.339348223297
 20
-125.783040347844
 30
0.0
 41
1.0
 10
186.089844575468
 20
-125.796506748518
 30
0.0
 41
1.0
 10
186.841501745195
 20
-125.805403826489
 30
0.0
 41
1.0
 10
187.594291413945
 20
-125.809752615645
 30
0.0
 41
1.0
 10
188.348184985803
 20
-125.809573603268
 30
0.0
 41
1.0
 10
189.103152635417
 20
-125.80488716398
 30
0.0
 41
1.0
 10
189.85916191167
 20
-125.795714167936
 30
0.0
 41
1.0
 10
190.616177973679
 20
-125.782076023847
 30
0.0
 41
1.0
 10
191.374165944923
 20
-125.763993965169
 30
0.0
 41
1.0
 10
192.13309277362
 20
-125.741488555815
 30
0.0
 41
1.0
 10
192.892929189166
 20
-125.714579138612
 30
0.0
 41
1.0
 10
193.653651849863
 20
-125.683283339684
 30
0.0
 41
1.0
 10
194.415244678417
 20
-125.647616579425
 30
0.0
 41
1.0
 10
195.177697279858
 20
-125.607591610602
 30
0.0
 41
1.0
 10
195.788342531776
 20
-125.572092781198
 30
0.0
 41
1.0
 10
196.246709623494
 20
-125.543514550683
 30
0.0
 41
1.0
 10
196.55245791873
 20
-125.523594192851
 30
0.0
 41
1.0
 10
196.705374624841
 20
-125.513416962893
 30
0.0
 41
1.0
  0
ARC
  5
100002FD
102
{ACAD_XDICTIONARY
360
100002FE
102
}
330
1F
100
AcDbEntity
  8
VISIBLE
100
AcDbCircle
 10
0.0000000000084918
 20
-0.0000000000049027
 30
0.0
 40
233.33799999999
100
AcDbArc
 50
327.4589390306316
 51
332.5410609693686
  0
SPLINE
  5
10000303
102
{ACAD_XDICTIONARY
360
10000304
102
}
330
1F
100
AcDbEntity
  8
VISIBLE
100
AcDbSpline
210
0.0
220
0.0
230
1.0
 70
    12
 71
     5
 72
    81
 73
    75
 74
     0
 42
0.0000000001
 43
0.00000001
 40
0.0
 40
0.0
 40
0.0
 40
0.0
 40
0.0
 40
0.0
 40
0.0142857142857143
 40
0.0285714285714286
 40
0.0428571428571429
 40
0.0571428571428571
 40
0.0714285714285714
 40
0.0857142857142857
 40
0.1
 40
0.114285714285714
 40
0.128571428571429
 40
0.142857142857143
 40
0.157142857142857
 40
0.171428571428571
 40
0.185714285714286
 40
0.2
 40
0.214285714285714
 40
0.228571428571429
 40
0.242857142857143
 40
0.257142857142857
 40
0.271428571428571
 40
0.285714285714286
 40
0.3
 40
0.314285714285714
 40
0.328571428571429
 40
0.342857142857143
 40
0.357142857142857
 40
0.371428571428571
 40
0.385714285714286
 40
0.4
 40
0.414285714285714
 40
0.428571428571429
 40
0.442857142857143
 40
0.457142857142857
 40
0.471428571428572
 40
0.485714285714286
 40
0.5
 40
0.514285714285714
 40
0.528571428571429
 40
0.542857142857143
 40
0.5571428571428569
 40
0.571428571428571
 40
0.585714285714286
 40
0.6
 40
0.614285714285714
 40
0.628571428571428
 40
0.642857142857142
 40
0.6571428571428569
 40
0.6714285714285709
 40
0.6857142857142849
 40
0.7
 40
0.714285714285714
 40
0.728571428571428
 40
0.742857142857142
 40
0.7571428571428559
 40
0.7714285714285709
 40
0.7857142857142849
 40
0.8
 40
0.8142857142857131
 40
0.8285714285714281
 40
0.842857142857142
 40
0.857142857142856
 40
0.87142857142857
 40
0.885714285714284
 40
0.9
 40
0.914285714285713
 40
0.928571428571427
 40
0.9428571428571411
 40
0.957142857142856
 40
0.97142857142857
 40
0.985714285714284
 40
1.0
 40
1.0
 40
1.0
 40
1.0
 40
1.0
 40
1.0
 10
174.68866237652
 20
-69.3265674122449
 30
0.0
 41
1.0
 10
174.816657386032
 20
-69.37737126876769
 30
0.0
 41
1.0
 10
175.070683789204
 20
-69.48299007082119
 30
0.0
 41
1.0
 10
175.445832697714
 20
-69.6534512370468
 30
0.0
 41
1.0
 10
175.934858552204
 20
-69.9035581207286
 30
0.0
 41
1.0
 10
176.531024870733
 20
-70.24707406780391
 30
0.0
 41
1.0
 10
177.116468815034
 20
-70.6124685194065
 30
0.0
 41
1.0
 10
177.695447977381
 20
-70.9909666438702
 30
0.0
 41
1.0
 10
178.270901333156
 20
-71.37641293445981
 30
0.0
 41
1.0
 10
178.84373342042
 20
-71.7667242662382
 30
0.0
 41
1.0
 10
179.413583916582
 20
-72.16235947936771
 30
0.0
 41
1.0
 10
179.979367130727
 20
-72.56525189612489
 30
0.0
 41
1.0
 10
180.539855536996
 20
-72.9776514143566
 30
0.0
 41
1.0
 10
181.09435343845
 20
-73.4007904904264
 30
0.0
 41
1.0
 10
181.642926036994
 20
-73.83442608182729
 30
0.0
 41
1.0
 10
182.186058424239
 20
-74.2775060631482
 30
0.0
 41
1.0
 10
182.72445274371
 20
-74.72856287292419
 30
0.0
 41
1.0
 10
183.258789585448
 20
-75.1861782965669
 30
0.0
 41
1.0
 10
183.789455000558
 20
-75.6495146912441
 30
0.0
 41
1.0
 10
184.31651718427
 20
-76.1183597502709
 30
0.0
 41
1.0
 10
184.83986340519
 20
-76.5928587764578
 30
0.0
 41
1.0
 10
185.35929069309
 20
-77.0733371496179
 30
0.0
 41
1.0
 10
185.874608266841
 20
-77.5600999310745
 30
0.0
 41
1.0
 10
186.385753573425
 20
-78.05320487187501
 30
0.0
 41
1.0
 10
186.892782642611
 20
-78.5524809274044
 30
0.0
 41
1.0
 10
187.395817579925
 20
-79.05763049784159
 30
0.0
 41
1.0
 10
187.895007582845
 20
-79.5683052664553
 30
0.0
 41
1.0
 10
188.390486635796
 20
-80.0841885430981
 30
0.0
 41
1.0
 10
188.882326745727
 20
-80.60508631261399
 30
0.0
 41
1.0
 10
189.370548033255
 20
-81.1309073913891
 30
0.0
 41
1.0
 10
189.855139651563
 20
-81.66162247397538
 30
0.0
 41
1.0
 10
190.336077179015
 20
-82.19723007095111
 30
0.0
 41
1.0
 10
190.813340800216
 20
-82.73772092240611
 30
0.0
 41
1.0
 10
191.286935027803
 20
-83.2830394159568
 30
0.0
 41
1.0
 10
191.756883342425
 20
-83.8330939770683
 30
0.0
 41
1.0
 10
192.223219910802
 20
-84.38777317532109
 30
0.0
 41
1.0
 10
192.685982287515
 20
-84.9469599253044
 30
0.0
 41
1.0
 10
193.145203987655
 20
-85.5105459499135
 30
0.0
 41
1.0
 10
193.600906466628
 20
-86.07844742311889
 30
0.0
 41
1.0
 10
194.053101612333
 20
-86.6505999961505
 30
0.0
 41
1.0
 10
194.501795257225
 20
-87.22695183725878
 30
0.0
 41
1.0
 10
194.946990394556
 20
-87.80745726517189
 30
0.0
 41
1.0
 10
195.388690409647
 20
-88.3920703699073
 30
0.0
 41
1.0
 10
195.82690267689
 20
-88.9807379247132
 30
0.0
 41
1.0
 10
196.261637627776
 20
-89.57340125787951
 30
0.0
 41
1.0
 10
196.692907297212
 20
-90.1699991661469
 30
0.0
 41
1.0
 10
197.120724053385
 20
-90.7704704900019
 30
0.0
 41
1.0
 10
197.545099345537
 20
-91.3747566490775
 30
0.0
 41
1.0
 10
197.966042289331
 20
-91.9828045666017
 30
0.0
 41
1.0
 10
198.383559937553
 20
-92.59456588151039
 30
0.0
 41
1.0
 10
198.797657890979
 20
-93.20999543759699
 30
0.0
 41
1.0
 10
199.208340829772
 20
-93.8290499506466
 30
0.0
 41
1.0
 10
199.615613063349
 20
-94.4516866952315
 30
0.0
 41
1.0
 10
200.019479196192
 20
-95.0778618541454
 30
0.0
 41
1.0
 10
200.419944151079
 20
-95.7075308571465
 30
0.0
 41
1.0
 10
200.817012973627
 20
-96.3406493803548
 30
0.0
 41
1.0
 10
201.210690736087
 20
-96.9771741531406
 30
0.0
 41
1.0
 10
201.600982418125
 20
-97.6170637083035
 30
0.0
 41
1.0
 10
201.987892839292
 20
-98.26027941439409
 30
0.0
 41
1.0
 10
202.371426519697
 20
-98.9067850793284
 30
0.0
 41
1.0
 10
202.751587515957
 20
-99.5565456615943
 30
0.0
 41
1.0
 10
203.12837927262
 20
-100.209526152763
 30
0.0
 41
1.0
 10
203.50180452195
 20
-100.865690536007
 30
0.0
 41
1.0
 10
203.871865112474
 20
-101.525000272761
 30
0.0
 41
1.0
 10
204.238562164236
 20
-102.187414485579
 30
0.0
 41
1.0
 10
204.601896627691
 20
-102.852892353778
 30
0.0
 41
1.0
 10
204.961869785816
 20
-103.52139497172
 30
0.0
 41
1.0
 10
205.31848375469
 20
-104.192887318905
 30
0.0
 41
1.0
 10
205.671742128135
 20
-104.867340367766
 30
0.0
 41
1.0
 10
206.021650221957
 20
-105.544732484764
 30
0.0
 41
1.0
 10
206.368213882892
 20
-106.225048291205
 30
0.0
 41
1.0
 10
206.642793620782
 20
-106.771632006768
 30
0.0
 41
1.0
 10
206.847227693019
 20
-107.182878667712
 30
0.0
 41
1.0
 10
206.982850304702
 20
-107.457624637467
 30
0.0
 41
1.0
 10
207.050494918075
 20
-107.5951430046
 30
0.0
 41
1.0
  0
LINE
  5
10000307
102
{ACAD_XDICTIONARY
360
10000308
102
}
330
1F
100
AcDbEntity
  8
VISIBLE
100
AcDbLine
 10
151.520886938287
 20
-60.1307999849735
 30
0.0
 11
174.68866237652
 21
-69.3265674122447
 31
0.0
  0
ARC
  5
1000030B
102
{ACAD_XDICTIONARY
360
1000030C
102
}
330
1F
100
AcDbEntity
  8
VISIBLE
100
AcDbCircle
 10
152.106550568232
 20
-58.6552816480631
 30
0.0
 40
1.5875
100
AcDbArc
 50
158.9123784019331
 51
248.3508521612031
  0
ARC
  5
10000311
102
{ACAD_XDICTIONARY
360
10000312
102
}
330
1F
100
AcDbEntity
  8
VISIBLE
100
AcDbCircle
 10
0.0
 20
0.0
 30
0.0
 40
161.436562
100
AcDbArc
 50
338.9123784019357
 51
351.0876215980642
  0
ARC
  5
10000317
102
{ACAD_XDICTIONARY
360
10000318
102
}
330
1F
100
AcDbEntity
  8
VISIBLE
100
AcDbCircle
 10
161.055777698143
 20
-25.2563113107624
 30
0.0
 40
1.5875
100
AcDbArc
 50
81.64914783877452
 51
171.0876215980624
  0
LINE
  5
1000031D
102
{ACAD_XDICTIONARY
360
1000031E
102
}
330
1F
100
AcDbEntity
  8
VISIBLE
100
AcDbLine
 10
161.286337284994
 20
-23.68564313227555
 30
0.0
 11
185.948103077312
 21
-27.3057626520816
 31
0.0
  0
SPLINE
  5
10000321
102
{ACAD_XDICTIONARY
360
10000322
102
}
330
1F
100
AcDbEntity
  8
VISIBLE
100
AcDbSpline
210
0.0
220
0.0
230
1.0
 70
    12
 71
     5
 72
    81
 73
    75
 74
     0
 42
0.0000000001
 43
0.00000001
 40
0.0
 40
0.0
 40
0.0
 40
0.0
 40
0.0
 40
0.0
 40
0.0142857142857143
 40
0.0285714285714286
 40
0.0428571428571429
 40
0.0571428571428571
 40
0.0714285714285714
 40
0.0857142857142857
 40
0.1
 40
0.114285714285714
 40
0.128571428571429
 40
0.142857142857143
 40
0.157142857142857
 40
0.171428571428571
 40
0.185714285714286
 40
0.2
 40
0.214285714285714
 40
0.228571428571429
 40
0.242857142857143
 40
0.257142857142857
 40
0.271428571428571
 40
0.285714285714286
 40
0.3
 40
0.314285714285714
 40
0.328571428571429
 40
0.342857142857143
 40
0.357142857142857
 40
0.371428571428571
 40
0.385714285714286
 40
0.4
 40
0.414285714285714
 40
0.428571428571429
 40
0.442857142857143
 40
0.457142857142857
 40
0.471428571428572
 40
0.485714285714286
 40
0.5
 40
0.514285714285714
 40
0.528571428571429
 40
0.542857142857143
 40
0.5571428571428569
 40
0.571428571428571
 40
0.585714285714286
 40
0.6
 40
0.614285714285714
 40
0.628571428571428
 40
0.642857142857142
 40
0.6571428571428569
 40
0.6714285714285709
 40
0.6857142857142849
 40
0.7
 40
0.714285714285714
 40
0.728571428571428
 40
0.742857142857142
 40
0.7571428571428559
 40
0.7714285714285709
 40
0.7857142857142849
 40
0.8
 40
0.8142857142857131
 40
0.8285714285714281
 40
0.842857142857142
 40
0.857142857142856
 40
0.87142857142857
 40
0.885714285714284
 40
0.9
 40
0.914285714285713
 40
0.928571428571427
 40
0.9428571428571411
 40
0.957142857142856
 40
0.97142857142857
 40
0.985714285714284
 40
1.0
 40
1.0
 40
1.0
 40
1.0
 40
1.0
 40
1.0
 10
185.948103077312
 20
-27.3057626520816
 30
0.0
 41
1.0
 10
186.084351935368
 20
-27.3257627264783
 30
0.0
 41
1.0
 10
186.357154654774
 20
-27.3613073623689
 30
0.0
 41
1.0
 10
186.767273722858
 20
-27.4012581163139
 30
0.0
 41
1.0
 10
187.315835977795
 20
-27.429172128629
 30
0.0
 41
1.0
 10
188.003889128059
 20
-27.4297617511213
 30
0.0
 41
1.0
 10
188.693595682117
 20
-27.406042845782
 30
0.0
 41
1.0
 10
189.384255407203
 20
-27.3677434358851
 30
0.0
 41
1.0
 10
190.075335777292
 20
-27.3216638343275
 30
0.0
 41
1.0
 10
190.766578582854
 20
-27.2700603492543
 30
0.0
 41
1.0
 10
191.457901195455
 20
-27.2123554521336
 30
0.0
 41
1.0
 10
192.149330040318
 20
-27.1463319913023
 30
0.0
 41
1.0
 10
192.840926997789
 20
-27.0694277351397
 30
0.0
 41
1.0
 10
193.532705804829
 20
-26.9802274966564
 30
0.0
 41
1.0
 10
194.224601406689
 20
-26.8789743577904
 30
0.0
 41
1.0
 10
194.916507842321
 20
-26.7668220316804
 30
0.0
 41
1.0
 10
195.608299405124
 20
-26.6453925355999
 30
0.0
 41
1.0
 10
196.299856396068
 20
-26.5162543744307
 30
0.0
 41
1.0
 10
196.991094323803
 20
-26.3803259936976
 30
0.0
 41
1.0
 10
197.681966093784
 20
-26.2378253539972
 30
0.0
 41
1.0
 10
198.372446729169
 20
-26.0885702537087
 30
0.0
 41
1.0
 10
199.062523142489
 20
-25.9321774205328
 30
0.0
 41
1.0
 10
199.752182643103
 20
-25.7682872730503
 30
0.0
 41
1.0
 10
200.441399934029
 20
-25.5968185208772
 30
0.0
 41
1.0
 10
201.130138016167
 20
-25.4179473078807
 30
0.0
 41
1.0
 10
201.81835383609
 20
-25.2319924158283
 30
0.0
 41
1.0
 10
202.506002444241
 20
-25.039330094597
 30
0.0
 41
1.0
 10
203.193041529461
 20
-24.8403015981121
 30
0.0
 41
1.0
 10
203.879436444019
 20
-24.6351109519023
 30
0.0
 41
1.0
 10
204.565159021074
 20
-24.4238471836017
 30
0.0
 41
1.0
 10
205.250185214284
 20
-24.2065302490646
 30
0.0
 41
1.0
 10
205.934493129178
 20
-23.9831492273497
 30
0.0
 41
1.0
 10
206.618060975168
 20
-23.7537022300771
 30
0.0
 41
1.0
 10
207.300864854119
 20
-23.5182396753023
 30
0.0
 41
1.0
 10
207.982879313604
 20
-23.2768526092232
 30
0.0
 41
1.0
 10
208.664078227658
 20
-23.0296546167739
 30
0.0
 41
1.0
 10
209.344435576799
 20
-22.7767658741852
 30
0.0
 41
1.0
 10
210.023926247394
 20
-22.518296909726
 30
0.0
 41
1.0
 10
210.702526907354
 20
-22.2543310465696
 30
0.0
 41
1.0
 10
211.380215677519
 20
-21.9849299563365
 30
0.0
 41
1.0
 10
212.056971693065
 20
-21.7101414428645
 30
0.0
 41
1.0
 10
212.732774705592
 20
-21.4300065639227
 30
0.0
 41
1.0
 10
213.407604691881
 20
-21.144566771382
 30
0.0
 41
1.0
 10
214.081441424966
 20
-20.853871848158
 30
0.0
 41
1.0
 10
214.754264602929
 20
-20.5579778211872
 30
0.0
 41
1.0
 10
215.426054046677
 20
-20.256943711501
 30
0.0
 41
1.0
 10
216.096789887615
 20
-19.9508286688853
 30
0.0
 41
1.0
 10
216.766452750894
 20
-19.6396891500462
 30
0.0
 41
1.0
 10
217.435023992526
 20
-19.3235756786494
 30
0.0
 41
1.0
 10
218.102485539869
 20
-19.0025336629965
 30
0.0
 41
1.0
 10
218.768819665234
 20
-18.6766050098986
 30
0.0
 41
1.0
 10
219.434008779654
 20
-18.3458295446668
 30
0.0
 41
1.0
 10
220.098035252481
 20
-18.0102464233153
 30
0.0
 41
1.0
 10
220.760881162708
 20
-17.6698958948986
 30
0.0
 41
1.0
 10
221.422528488466
 20
-17.3248190197677
 30
0.0
 41
1.0
 10
222.082959437447
 20
-16.9750567063365
 30
0.0
 41
1.0
 10
222.742156767036
 20
-16.6206489641961
 30
0.0
 41
1.0
 10
223.400104056148
 20
-16.2616341948277
 30
0.0
 41
1.0
 10
224.056786162913
 20
-15.8980482638234
 30
0.0
 41
1.0
 10
224.712188905818
 20
-15.5299247745025
 30
0.0
 41
1.0
 10
225.36629827724
 20
-15.1572961020123
 30
0.0
 41
1.0
 10
226.01909975603
 20
-14.7801942868162
 30
0.0
 41
1.0
 10
226.670577699987
 20
-14.3986518865334
 30
0.0
 41
1.0
 10
227.320714440698
 20
-14.0127032008038
 30
0.0
 41
1.0
 10
227.969490509425
 20
-13.6223841905572
 30
0.0
 41
1.0
 10
228.616886318947
 20
-13.2277306827679
 30
0.0
 41
1.0
 10
229.262883527535
 20
-12.8287770121957
 30
0.0
 41
1.0
 10
229.907466457517
 20
-12.425554565524
 30
0.0
 41
1.0
 10
230.550623707451
 20
-12.0180902782727
 30
0.0
 41
1.0
 10
231.192349064189
 20
-11.6064055435406
 30
0.0
 41
1.0
 10
231.832639901807
 20
-11.1905166030338
 30
0.0
 41
1.0
 10
232.343724787967
 20
-10.8544510890063
 30
0.0
 41
1.0
 10
232.726393218395
 20
-10.6005180695256
 30
0.0
 41
1.0
 10
232.981218830317
 20
-10.4303923859726
 30
0.0
 41
1.0
 10
233.108559967494
 20
-10.3451202932341
 30
0.0
 41
1.0
  0
ARC
  5
10000325
102
{ACAD_XDICTIONARY
360
10000326
102
}
330
1F
100
AcDbEntity
  8
VISIBLE
100
AcDbCircle
 10
0.0000000000098055
 20
0.0
 30
0.0
 40
233.33799999999
100
AcDbArc
 50
357.4589390306315
 51
2.541060969368553
  0
SPLINE
  5
1000032B
102
{ACAD_XDICTIONARY
360
1000032C
102
}
330
1F
100
AcDbEntity
  8
VISIBLE
100
AcDbSpline
210
0.0
220
0.0
230
1.0
 70
    12
 71
     5
 72
    81
 73
    75
 74
     0
 42
0.0000000001
 43
0.00000001
 40
0.0
 40
0.0
 40
0.0
 40
0.0
 40
0.0
 40
0.0
 40
0.0142857142857143
 40
0.0285714285714286
 40
0.0428571428571429
 40
0.0571428571428571
 40
0.0714285714285714
 40
0.0857142857142857
 40
0.1
 40
0.114285714285714
 40
0.128571428571429
 40
0.142857142857143
 40
0.157142857142857
 40
0.171428571428571
 40
0.185714285714286
 40
0.2
 40
0.214285714285714
 40
0.228571428571429
 40
0.242857142857143
 40
0.257142857142857
 40
0.271428571428571
 40
0.285714285714286
 40
0.3
 40
0.314285714285714
 40
0.328571428571429
 40
0.342857142857143
 40
0.357142857142857
 40
0.371428571428571
 40
0.385714285714286
 40
0.4
 40
0.414285714285714
 40
0.428571428571429
 40
0.442857142857143
 40
0.457142857142857
 40
0.471428571428572
 40
0.485714285714286
 40
0.5
 40
0.514285714285714
 40
0.528571428571429
 40
0.542857142857143
 40
0.5571428571428569
 40
0.571428571428571
 40
0.585714285714286
 40
0.6
 40
0.614285714285714
 40
0.628571428571428
 40
0.642857142857142
 40
0.6571428571428569
 40
0.6714285714285709
 40
0.6857142857142849
 40
0.7
 40
0.714285714285714
 40
0.728571428571428
 40
0.742857142857142
 40
0.7571428571428559
 40
0.7714285714285709
 40
0.7857142857142849
 40
0.8
 40
0.8142857142857131
 40
0.8285714285714281
 40
0.842857142857142
 40
0.857142857142856
 40
0.87142857142857
 40
0.885714285714284
 40
0.9
 40
0.914285714285713
 40
0.928571428571427
 40
0.9428571428571411
 40
0.957142857142856
 40
0.97142857142857
 40
0.985714285714284
 40
1.0
 40
1.0
 40
1.0
 40
1.0
 40
1.0
 40
1.0
 10
185.948103077312
 20
27.3057626520816
 30
0.0
 41
1.0
 10
186.084351935368
 20
27.3257627264783
 30
0.0
 41
1.0
 10
186.357154654774
 20
27.3613073623689
 30
0.0
 41
1.0
 10
186.767273722858
 20
27.4012581163139
 30
0.0
 41
1.0
 10
187.315835977795
 20
27.429172128629
 30
0.0
 41
1.0
 10
188.003889128059
 20
27.4297617511213
 30
0.0
 41
1.0
 10
188.693595682117
 20
27.406042845782
 30
0.0
 41
1.0
 10
189.384255407203
 20
27.3677434358851
 30
0.0
 41
1.0
 10
190.075335777292
 20
27.3216638343275
 30
0.0
 41
1.0
 10
190.766578582854
 20
27.2700603492543
 30
0.0
 41
1.0
 10
191.457901195455
 20
27.2123554521336
 30
0.0
 41
1.0
 10
192.149330040318
 20
27.1463319913023
 30
0.0
 41
1.0
 10
192.840926997789
 20
27.0694277351397
 30
0.0
 41
1.0
 10
193.532705804829
 20
26.9802274966564
 30
0.0
 41
1.0
 10
194.224601406689
 20
26.8789743577904
 30
0.0
 41
1.0
 10
194.916507842321
 20
26.7668220316804
 30
0.0
 41
1.0
 10
195.608299405124
 20
26.6453925355999
 30
0.0
 41
1.0
 10
196.299856396068
 20
26.5162543744307
 30
0.0
 41
1.0
 10
196.991094323803
 20
26.3803259936976
 30
0.0
 41
1.0
 10
197.681966093784
 20
26.2378253539972
 30
0.0
 41
1.0
 10
198.372446729169
 20
26.0885702537087
 30
0.0
 41
1.0
 10
199.062523142489
 20
25.9321774205328
 30
0.0
 41
1.0
 10
199.752182643103
 20
25.7682872730503
 30
0.0
 41
1.0
 10
200.441399934029
 20
25.5968185208772
 30
0.0
 41
1.0
 10
201.130138016167
 20
25.4179473078807
 30
0.0
 41
1.0
 10
201.81835383609
 20
25.2319924158283
 30
0.0
 41
1.0
 10
202.506002444241
 20
25.039330094597
 30
0.0
 41
1.0
 10
203.193041529461
 20
24.8403015981121
 30
0.0
 41
1.0
 10
203.879436444019
 20
24.6351109519023
 30
0.0
 41
1.0
 10
204.565159021074
 20
24.4238471836017
 30
0.0
 41
1.0
 10
205.250185214284
 20
24.2065302490646
 30
0.0
 41
1.0
 10
205.934493129178
 20
23.9831492273497
 30
0.0
 41
1.0
 10
206.618060975168
 20
23.7537022300771
 30
0.0
 41
1.0
 10
207.300864854119
 20
23.5182396753023
 30
0.0
 41
1.0
 10
207.982879313604
 20
23.2768526092232
 30
0.0
 41
1.0
 10
208.664078227658
 20
23.0296546167739
 30
0.0
 41
1.0
 10
209.344435576799
 20
22.7767658741852
 30
0.0
 41
1.0
 10
210.023926247394
 20
22.518296909726
 30
0.0
 41
1.0
 10
210.702526907354
 20
22.2543310465696
 30
0.0
 41
1.0
 10
211.380215677519
 20
21.9849299563365
 30
0.0
 41
1.0
 10
212.056971693065
 20
21.7101414428645
 30
0.0
 41
1.0
 10
212.732774705592
 20
21.4300065639227
 30
0.0
 41
1.0
 10
213.407604691881
 20
21.144566771382
 30
0.0
 41
1.0
 10
214.081441424966
 20
20.853871848158
 30
0.0
 41
1.0
 10
214.754264602929
 20
20.5579778211872
 30
0.0
 41
1.0
 10
215.426054046677
 20
20.256943711501
 30
0.0
 41
1.0
 10
216.096789887615
 20
19.9508286688853
 30
0.0
 41
1.0
 10
216.766452750894
 20
19.6396891500462
 30
0.0
 41
1.0
 10
217.435023992526
 20
19.3235756786494
 30
0.0
 41
1.0
 10
218.102485539869
 20
19.0025336629965
 30
0.0
 41
1.0
 10
218.768819665234
 20
18.6766050098986
 30
0.0
 41
1.0
 10
219.434008779654
 20
18.3458295446668
 30
0.0
 41
1.0
 10
220.098035252481
 20
18.0102464233153
 30
0.0
 41
1.0
 10
220.760881162708
 20
17.6698958948986
 30
0.0
 41
1.0
 10
221.422528488466
 20
17.3248190197677
 30
0.0
 41
1.0
 10
222.082959437447
 20
16.9750567063365
 30
0.0
 41
1.0
 10
222.742156767036
 20
16.6206489641961
 30
0.0
 41
1.0
 10
223.400104056148
 20
16.2616341948277
 30
0.0
 41
1.0
 10
224.056786162913
 20
15.8980482638234
 30
0.0
 41
1.0
 10
224.712188905818
 20
15.5299247745025
 30
0.0
 41
1.0
 10
225.36629827724
 20
15.1572961020123
 30
0.0
 41
1.0
 10
226.01909975603
 20
14.7801942868162
 30
0.0
 41
1.0
 10
226.670577699987
 20
14.3986518865334
 30
0.0
 41
1.0
 10
227.320714440698
 20
14.0127032008038
 30
0.0
 41
1.0
 10
227.969490509425
 20
13.6223841905572
 30
0.0
 41
1.0
 10
228.616886318947
 20
13.2277306827679
 30
0.0
 41
1.0
 10
229.262883527535
 20
12.8287770121957
 30
0.0
 41
1.0
 10
229.907466457517
 20
12.425554565524
 30
0.0
 41
1.0
 10
230.550623707451
 20
12.0180902782727
 30
0.0
 41
1.0
 10
231.192349064189
 20
11.6064055435406
 30
0.0
 41
1.0
 10
231.832639901807
 20
11.1905166030338
 30
0.0
 41
1.0
 10
232.343724787967
 20
10.8544510890063
 30
0.0
 41
1.0
 10
232.726393218395
 20
10.6005180695256
 30
0.0
 41
1.0
 10
232.981218830317
 20
10.4303923859726
 30
0.0
 41
1.0
 10
233.108559967494
 20
10.3451202932341
 30
0.0
 41
1.0
  0
LINE
  5
1000032F
102
{ACAD_XDICTIONARY
360
10000330
102
}
330
1F
100
AcDbEntity
  8
VISIBLE
100
AcDbLine
 10
161.286337284994
 20
23.68564313227555
 30
0.0
 11
185.948103077312
 21
27.3057626520816
 31
0.0
  0
ARC
  5
10000333
102
{ACAD_XDICTIONARY
360
10000334
102
}
330
1F
100
AcDbEntity
  8
VISIBLE
100
AcDbCircle
 10
161.055777698143
 20
25.2563113107624
 30
0.0
 40
1.5875
100
AcDbArc
 50
188.9123784019376
 51
278.3508521612255
  0
ARC
  5
10000339
102
{ACAD_XDICTIONARY
360
1000033A
102
}
330
1F
100
AcDbEntity
  8
VISIBLE
100
AcDbCircle
 10
0.0
 20
0.0
 30
0.0
 40
161.436562
100
AcDbArc
 50
8.912378401935797
 51
21.08762159806432
  0
ARC
  5
1000033F
102
{ACAD_XDICTIONARY
360
10000340
102
}
330
1F
100
AcDbEntity
  8
VISIBLE
100
AcDbCircle
 10
152.106550568232
 20
58.65528164806319
 30
0.0
 40
1.5875
100
AcDbArc
 50
111.6491478387968
 51
201.0876215980664
  0
ENDSEC
  0
SECTION
  2
OBJECTS
  0
DICTIONARY
  5
C
330
0
100
AcDbDictionary
  3
ACAD_GROUP
350
D
  3
ACAD_LAYOUT
350
1A
  3
ACAD_MATERIAL
350
43
  3
ACAD_MLEADERSTYLE
350
5B
  3
ACAD_MLINESTYLE
350
17
  3
ACAD_PLOTSETTINGS
350
19
  3
ACAD_SCALELIST
350
47
  3
ACAD_VISUALSTYLE
350
2A
  3
ACDBHEADERROUNDTRIPXREC
350
10000347
  3
ACDBVARIABLEDICTIONARY
350
10000368
  3
DWGPROPS
350
10000373
  3
ONSHAPE_DATA
350
10000001
  0
DICTIONARY
  5
10000374
330
8
100
AcDbDictionary
280
     1
  3
ACAD_XREC_ROUNDTRIP
360
10000375
  0
DICTIONARY
  5
10000345
330
1F
100
AcDbDictionary
280
     1
  3
ACAD_SORTENTS
360
10000346
  0
DICTIONARY
  5
1000005A
330
10000059
100
AcDbDictionary
280
     1
  3
BTDETID
360
1000005B
  3
BTPARTID
360
1000005C
  0
DICTIONARY
  5
1000005E
330
1000005D
100
AcDbDictionary
280
     1
  3
BTDETID
360
1000005F
  3
BTPARTID
360
10000060
  0
DICTIONARY
  5
10000062
330
10000061
100
AcDbDictionary
280
     1
  3
BTDETID
360
10000063
  3
BTPARTID
360
10000064
  0
DICTIONARY
  5
10000066
330
10000065
100
AcDbDictionary
280
     1
  3
BTDETID
360
10000067
  3
BTPARTID
360
10000068
  0
DICTIONARY
  5
1000006A
330
10000069
100
AcDbDictionary
280
     1
  3
BTDETID
360
1000006B
  3
BTPARTID
360
1000006C
  0
DICTIONARY
  5
1000006E
330
1000006D
100
AcDbDictionary
280
     1
  3
BTDETID
360
1000006F
  3
BTPARTID
360
10000070
  0
DICTIONARY
  5
10000072
330
10000071
100
AcDbDictionary
280
     1
  3
BTDETID
360
10000073
  3
BTPARTID
360
10000074
  0
DICTIONARY
  5
10000076
330
10000075
100
AcDbDictionary
280
     1
  3
BTDETID
360
10000077
  3
BTPARTID
360
10000078
  0
DICTIONARY
  5
1000007A
330
10000079
100
AcDbDictionary
280
     1
  3
BTDETID
360
1000007B
  3
BTPARTID
360
1000007C
  0
DICTIONARY
  5
1000007E
330
1000007D
100
AcDbDictionary
280
     1
  3
BTDETID
360
1000007F
  3
BTPARTID
360
10000080
  0
DICTIONARY
  5
10000082
330
10000081
100
AcDbDictionary
280
     1
  3
BTDETID
360
10000083
  3
BTPARTID
360
10000084
  0
DICTIONARY
  5
10000086
330
10000085
100
AcDbDictionary
280
     1
  3
BTDETID
360
10000087
  3
BTPARTID
360
10000088
  0
DICTIONARY
  5
1000008A
330
10000089
100
AcDbDictionary
280
     1
  3
BTDETID
360
1000008B
  3
BTPARTID
360
1000008C
  0
DICTIONARY
  5
1000008E
330
1000008D
100
AcDbDictionary
280
     1
  3
BTDETID
360
1000008F
  3
BTPARTID
360
10000090
  0
DICTIONARY
  5
10000092
330
10000091
100
AcDbDictionary
280
     1
  3
BTDETID
360
10000093
  3
BTPARTID
360
10000094
  0
DICTIONARY
  5
10000096
330
10000095
100
AcDbDictionary
280
     1
  3
BTDETID
360
10000097
  3
BTPARTID
360
10000098
  0
DICTIONARY
  5
1000009A
330
10000099
100
AcDbDictionary
280
     1
  3
BTDETID
360
1000009B
  3
BTPARTID
360
1000009C
  0
DICTIONARY
  5
1000009E
330
1000009D
100
AcDbDictionary
280
     1
  3
BTDETID
360
1000009F
  3
BTPARTID
360
100000A0
  0
DICTIONARY
  5
100000A2
330
100000A1
100
AcDbDictionary
280
     1
  3
BTDETID
360
100000A3
  3
BTPARTID
360
100000A4
  0
DICTIONARY
  5
100000A6
330
100000A5
100
AcDbDictionary
280
     1
  3
BTDETID
360
100000A7
  3
BTPARTID
360
100000A8
  0
DICTIONARY
  5
100000AA
330
100000A9
100
AcDbDictionary
280
     1
  3
BTDETID
360
100000AB
  3
BTPARTID
360
100000AC
  0
DICTIONARY
  5
100000AE
330
100000AD
100
AcDbDictionary
280
     1
  3
BTDETID
360
100000AF
  3
BTPARTID
360
100000B0
  0
DICTIONARY
  5
100000B2
330
100000B1
100
AcDbDictionary
280
     1
  3
BTDETID
360
100000B3
  3
BTPARTID
360
100000B4
  0
DICTIONARY
  5
100000B6
330
100000B5
100
AcDbDictionary
280
     1
  3
BTDETID
360
100000B7
  3
BTPARTID
360
100000B8
  0
DICTIONARY
  5
100000BA
330
100000B9
100
AcDbDictionary
280
     1
  3
BTDETID
360
100000BB
  3
BTPARTID
360
100000BC
  0
DICTIONARY
  5
100000BE
330
100000BD
100
AcDbDictionary
280
     1
  3
BTDETID
360
100000BF
  3
BTPARTID
360
100000C0
  0
DICTIONARY
  5
100000C2
330
100000C1
100
AcDbDictionary
280
     1
  3
BTDETID
360
100000C3
  3
BTPARTID
360
100000C4
  0
DICTIONARY
  5
100000C6
330
100000C5
100
AcDbDictionary
280
     1
  3
BTDETID
360
100000C7
  3
BTPARTID
360
100000C8
  0
DICTIONARY
  5
100000CA
330
100000C9
100
AcDbDictionary
280
     1
  3
BTDETID
360
100000CB
  3
BTPARTID
360
100000CC
  0
DICTIONARY
  5
100000CE
330
100000CD
100
AcDbDictionary
280
     1
  3
BTDETID
360
100000CF
  3
BTPARTID
360
100000D0
  0
DICTIONARY
  5
100000D2
330
100000D1
100
AcDbDictionary
280
     1
  3
BTDETID
360
100000D3
  3
BTPARTID
360
100000D4
  0
DICTIONARY
  5
100000D6
330
100000D5
100
AcDbDictionary
280
     1
  3
BTDETID
360
100000D7
  3
BTPARTID
360
100000D8
  0
DICTIONARY
  5
100000DA
330
100000D9
100
AcDbDictionary
280
     1
  3
BTDETID
360
100000DB
  3
BTPARTID
360
100000DC
  0
DICTIONARY
  5
100000DE
330
100000DD
100
AcDbDictionary
280
     1
  3
BTDETID
360
100000DF
  3
BTPARTID
360
100000E0
  0
DICTIONARY
  5
100000E2
330
100000E1
100
AcDbDictionary
280
     1
  3
BTDETID
360
100000E3
  3
BTPARTID
360
100000E4
  0
DICTIONARY
  5
100000E6
330
100000E5
100
AcDbDictionary
280
     1
  3
BTDETID
360
100000E7
  3
BTPARTID
360
100000E8
  0
DICTIONARY
  5
100000EA
330
100000E9
100
AcDbDictionary
280
     1
  3
BTDETID
360
100000EB
  3
BTPARTID
360
100000EC
  0
DICTIONARY
  5
100000EE
330
100000ED
100
AcDbDictionary
280
     1
  3
BTDETID
360
100000EF
  3
BTPARTID
360
100000F0
  0
DICTIONARY
  5
100000F2
330
100000F1
100
AcDbDictionary
280
     1
  3
BTDETID
360
100000F3
  3
BTPARTID
360
100000F4
  0
DICTIONARY
  5
100000F6
330
100000F5
100
AcDbDictionary
280
     1
  3
BTDETID
360
100000F7
  3
BTPARTID
360
100000F8
  0
DICTIONARY
  5
100000FA
330
100000F9
100
AcDbDictionary
280
     1
  3
BTDETID
360
100000FB
  3
BTPARTID
360
100000FC
  0
DICTIONARY
  5
100000FE
330
100000FD
100
AcDbDictionary
280
     1
  3
BTDETID
360
100000FF
  3
BTPARTID
360
10000100
  0
DICTIONARY
  5
10000102
330
10000101
100
AcDbDictionary
280
     1
  3
BTDETID
360
10000103
  3
BTPARTID
360
10000104
  0
DICTIONARY
  5
10000106
330
10000105
100
AcDbDictionary
280
     1
  3
BTDETID
360
10000107
  3
BTPARTID
360
10000108
  0
DICTIONARY
  5
1000010A
330
10000109
100
AcDbDictionary
280
     1
  3
BTDETID
360
1000010B
  3
BTPARTID
360
1000010C
  0
DICTIONARY
  5
1000010E
330
1000010D
100
AcDbDictionary
280
     1
  3
BTDETID
360
1000010F
  3
BTPARTID
360
10000110
  0
DICTIONARY
  5
10000112
330
10000111
100
AcDbDictionary
280
     1
  3
BTDETID
360
10000113
  3
BTPARTID
360
10000114
  0
DICTIONARY
  5
10000116
330
10000115
100
AcDbDictionary
280
     1
  3
BTDETID
360
10000117
  3
BTPARTID
360
10000118
  0
DICTIONARY
  5
1000011A
330
10000119
100
AcDbDictionary
280
     1
  3
BTARCONSURFACERADIUS
360
1000011D
  3
BTDETID
360
1000011B
  3
BTOWNERFACEID_
360
1000011C
  3
BTPARTID
360
1000011E
  0
DICTIONARY
  5
10000120
330
1000011F
100
AcDbDictionary
280
     1
  3
BTARCONSURFACERADIUS
360
10000123
  3
BTDETID
360
10000121
  3
BTOWNERFACEID_
360
10000122
  3
BTPARTID
360
10000124
  0
DICTIONARY
  5
10000126
330
10000125
100
AcDbDictionary
280
     1
  3
BTARCONSURFACERADIUS
360
10000129
  3
BTDETID
360
10000127
  3
BTOWNERFACEID_
360
10000128
  3
BTPARTID
360
1000012A
  0
DICTIONARY
  5
1000012C
330
1000012B
100
AcDbDictionary
280
     1
  3
BTARCONSURFACERADIUS
360
1000012F
  3
BTDETID
360
1000012D
  3
BTOWNERFACEID_
360
1000012E
  3
BTPARTID
360
10000130
  0
DICTIONARY
  5
10000132
330
10000131
100
AcDbDictionary
280
     1
  3
BTARCONSURFACERADIUS
360
10000135
  3
BTDETID
360
10000133
  3
BTOWNERFACEID_
360
10000134
  3
BTPARTID
360
10000136
  0
DICTIONARY
  5
10000138
330
10000137
100
AcDbDictionary
280
     1
  3
BTDETID
360
10000139
  3
BTPARTID
360
1000013A
  0
DICTIONARY
  5
1000013C
330
1000013B
100
AcDbDictionary
280
     1
  3
BTARCONSURFACERADIUS
360
1000013F
  3
BTDETID
360
1000013D
  3
BTOWNERFACEID_
360
1000013E
  3
BTPARTID
360
10000140
  0
DICTIONARY
  5
10000142
330
10000141
100
AcDbDictionary
280
     1
  3
BTDETID
360
10000143
  3
BTPARTID
360
10000144
  0
DICTIONARY
  5
10000146
330
10000145
100
AcDbDictionary
280
     1
  3
BTDETID
360
10000147
  3
BTPARTID
360
10000148
  0
DICTIONARY
  5
1000014A
330
10000149
100
AcDbDictionary
280
     1
  3
BTDETID
360
1000014B
  3
BTPARTID
360
1000014C
  0
DICTIONARY
  5
1000014E
330
1000014D
100
AcDbDictionary
280
     1
  3
BTDETID
360
1000014F
  3
BTPARTID
360
10000150
  0
DICTIONARY
  5
10000152
330
10000151
100
AcDbDictionary
280
     1
  3
BTDETID
360
10000153
  3
BTPARTID
360
10000154
  0
DICTIONARY
  5
10000156
330
10000155
100
AcDbDictionary
280
     1
  3
BTDETID
360
10000157
  3
BTPARTID
360
10000158
  0
DICTIONARY
  5
1000015A
330
10000159
100
AcDbDictionary
280
     1
  3
BTDETID
360
1000015B
  3
BTPARTID
360
1000015C
  0
DICTIONARY
  5
1000015E
330
1000015D
100
AcDbDictionary
280
     1
  3
BTDETID
360
1000015F
  3
BTPARTID
360
10000160
  0
DICTIONARY
  5
10000162
330
10000161
100
AcDbDictionary
280
     1
  3
BTDETID
360
10000163
  3
BTPARTID
360
10000164
  0
DICTIONARY
  5
10000166
330
10000165
100
AcDbDictionary
280
     1
  3
BTDETID
360
10000167
  3
BTPARTID
360
10000168
  0
DICTIONARY
  5
1000016A
330
10000169
100
AcDbDictionary
280
     1
  3
BTDETID
360
1000016B
  3
BTPARTID
360
1000016C
  0
DICTIONARY
  5
1000016E
330
1000016D
100
AcDbDictionary
280
     1
  3
BTARCONSURFACERADIUS
360
10000171
  3
BTDETID
360
1000016F
  3
BTOWNERFACEID_
360
10000170
  3
BTPARTID
360
10000172
  0
DICTIONARY
  5
10000174
330
10000173
100
AcDbDictionary
280
     1
  3
BTDETID
360
10000175
  3
BTPARTID
360
10000176
  0
DICTIONARY
  5
10000178
330
10000177
100
AcDbDictionary
280
     1
  3
BTDETID
360
10000179
  3
BTPARTID
360
1000017A
  0
DICTIONARY
  5
1000017C
330
1000017B
100
AcDbDictionary
280
     1
  3
BTARCONSURFACERADIUS
360
1000017F
  3
BTDETID
360
1000017D
  3
BTOWNERFACEID_
360
1000017E
  3
BTPARTID
360
10000180
  0
DICTIONARY
  5
10000182
330
10000181
100
AcDbDictionary
280
     1
  3
BTARCONSURFACERADIUS
360
10000185
  3
BTDETID
360
10000183
  3
BTOWNERFACEID_
360
10000184
  3
BTPARTID
360
10000186
  0
DICTIONARY
  5
10000188
330
10000187
100
AcDbDictionary
280
     1
  3
BTARCONSURFACERADIUS
360
1000018B
  3
BTDETID
360
10000189
  3
BTOWNERFACEID_
360
1000018A
  3
BTPARTID
360
1000018C
  0
DICTIONARY
  5
1000018E
330
1000018D
100
AcDbDictionary
280
     1
  3
BTDETID
360
1000018F
  3
BTPARTID
360
10000190
  0
DICTIONARY
  5
10000192
330
10000191
100
AcDbDictionary
280
     1
  3
BTDETID
360
10000193
  3
BTPARTID
360
10000194
  0
DICTIONARY
  5
10000196
330
10000195
100
AcDbDictionary
280
     1
  3
BTARCONSURFACERADIUS
360
10000199
  3
BTDETID
360
10000197
  3
BTOWNERFACEID_
360
10000198
  3
BTPARTID
360
1000019A
  0
DICTIONARY
  5
1000019C
330
1000019B
100
AcDbDictionary
280
     1
  3
BTDETID
360
1000019D
  3
BTPARTID
360
1000019E
  0
DICTIONARY
  5
100001A0
330
1000019F
100
AcDbDictionary
280
     1
  3
BTDETID
360
100001A1
  3
BTPARTID
360
100001A2
  0
DICTIONARY
  5
100001A4
330
100001A3
100
AcDbDictionary
280
     1
  3
BTARCONSURFACERADIUS
360
100001A7
  3
BTDETID
360
100001A5
  3
BTOWNERFACEID_
360
100001A6
  3
BTPARTID
360
100001A8
  0
DICTIONARY
  5
100001AA
330
100001A9
100
AcDbDictionary
280
     1
  3
BTARCONSURFACERADIUS
360
100001AD
  3
BTDETID
360
100001AB
  3
BTOWNERFACEID_
360
100001AC
  3
BTPARTID
360
100001AE
  0
DICTIONARY
  5
100001B0
330
100001AF
100
AcDbDictionary
280
     1
  3
BTARCONSURFACERADIUS
360
100001B3
  3
BTDETID
360
100001B1
  3
BTOWNERFACEID_
360
100001B2
  3
BTPARTID
360
100001B4
  0
DICTIONARY
  5
100001B6
330
100001B5
100
AcDbDictionary
280
     1
  3
BTDETID
360
100001B7
  3
BTPARTID
360
100001B8
  0
DICTIONARY
  5
100001BA
330
100001B9
100
AcDbDictionary
280
     1
  3
BTDETID
360
100001BB
  3
BTPARTID
360
100001BC
  0
DICTIONARY
  5
100001BE
330
100001BD
100
AcDbDictionary
280
     1
  3
BTARCONSURFACERADIUS
360
100001C1
  3
BTDETID
360
100001BF
  3
BTOWNERFACEID_
360
100001C0
  3
BTPARTID
360
100001C2
  0
DICTIONARY
  5
100001C4
330
100001C3
100
AcDbDictionary
280
     1
  3
BTDETID
360
100001C5
  3
BTPARTID
360
100001C6
  0
DICTIONARY
  5
100001C8
330
100001C7
100
AcDbDictionary
280
     1
  3
BTDETID
360
100001C9
  3
BTPARTID
360
100001CA
  0
DICTIONARY
  5
100001CC
330
100001CB
100
AcDbDictionary
280
     1
  3
BTARCONSURFACERADIUS
360
100001CF
  3
BTDETID
360
100001CD
  3
BTOWNERFACEID_
360
100001CE
  3
BTPARTID
360
100001D0
  0
DICTIONARY
  5
100001D2
330
100001D1
100
AcDbDictionary
280
     1
  3
BTARCONSURFACERADIUS
360
100001D5
  3
BTDETID
360
100001D3
  3
BTOWNERFACEID_
360
100001D4
  3
BTPARTID
360
100001D6
  0
DICTIONARY
  5
100001D8
330
100001D7
100
AcDbDictionary
280
     1
  3
BTARCONSURFACERADIUS
360
100001DB
  3
BTDETID
360
100001D9
  3
BTOWNERFACEID_
360
100001DA
  3
BTPARTID
360
100001DC
  0
DICTIONARY
  5
100001DE
330
100001DD
100
AcDbDictionary
280
     1
  3
BTDETID
360
100001DF
  3
BTPARTID
360
100001E0
  0
DICTIONARY
  5
100001E2
330
100001E1
100
AcDbDictionary
280
     1
  3
BTDETID
360
100001E3
  3
BTPARTID
360
100001E4
  0
DICTIONARY
  5
100001E6
330
100001E5
100
AcDbDictionary
280
     1
  3
BTARCONSURFACERADIUS
360
100001E9
  3
BTDETID
360
100001E7
  3
BTOWNERFACEID_
360
100001E8
  3
BTPARTID
360
100001EA
  0
DICTIONARY
  5
100001EC
330
100001EB
100
AcDbDictionary
280
     1
  3
BTDETID
360
100001ED
  3
BTPARTID
360
100001EE
  0
DICTIONARY
  5
100001F0
330
100001EF
100
AcDbDictionary
280
     1
  3
BTDETID
360
100001F1
  3
BTPARTID
360
100001F2
  0
DICTIONARY
  5
100001F4
330
100001F3
100
AcDbDictionary
280
     1
  3
BTARCONSURFACERADIUS
360
100001F7
  3
BTDETID
360
100001F5
  3
BTOWNERFACEID_
360
100001F6
  3
BTPARTID
360
100001F8
  0
DICTIONARY
  5
100001FA
330
100001F9
100
AcDbDictionary
280
     1
  3
BTARCONSURFACERADIUS
360
100001FD
  3
BTDETID
360
100001FB
  3
BTOWNERFACEID_
360
100001FC
  3
BTPARTID
360
100001FE
  0
DICTIONARY
  5
10000200
330
100001FF
100
AcDbDictionary
280
     1
  3
BTARCONSURFACERADIUS
360
10000203
  3
BTDETID
360
10000201
  3
BTOWNERFACEID_
360
10000202
  3
BTPARTID
360
10000204
  0
DICTIONARY
  5
10000206
330
10000205
100
AcDbDictionary
280
     1
  3
BTDETID
360
10000207
  3
BTPARTID
360
10000208
  0
DICTIONARY
  5
1000020A
330
10000209
100
AcDbDictionary
280
     1
  3
BTDETID
360
1000020B
  3
BTPARTID
360
1000020C
  0
DICTIONARY
  5
1000020E
330
1000020D
100
AcDbDictionary
280
     1
  3
BTARCONSURFACERADIUS
360
10000211
  3
BTDETID
360
1000020F
  3
BTOWNERFACEID_
360
10000210
  3
BTPARTID
360
10000212
  0
DICTIONARY
  5
10000214
330
10000213
100
AcDbDictionary
280
     1
  3
BTDETID
360
10000215
  3
BTPARTID
360
10000216
  0
DICTIONARY
  5
10000218
330
10000217
100
AcDbDictionary
280
     1
  3
BTDETID
360
10000219
  3
BTPARTID
360
1000021A
  0
DICTIONARY
  5
1000021C
330
1000021B
100
AcDbDictionary
280
     1
  3
BTARCONSURFACERADIUS
360
1000021F
  3
BTDETID
360
1000021D
  3
BTOWNERFACEID_
360
1000021E
  3
BTPARTID
360
10000220
  0
DICTIONARY
  5
10000222
330
10000221
100
AcDbDictionary
280
     1
  3
BTARCONSURFACERADIUS
360
10000225
  3
BTDETID
360
10000223
  3
BTOWNERFACEID_
360
10000224
  3
BTPARTID
360
10000226
  0
DICTIONARY
  5
10000228
330
10000227
100
AcDbDictionary
280
     1
  3
BTARCONSURFACERADIUS
360
1000022B
  3
BTDETID
360
10000229
  3
BTOWNERFACEID_
360
1000022A
  3
BTPARTID
360
1000022C
  0
DICTIONARY
  5
1000022E
330
1000022D
100
AcDbDictionary
280
     1
  3
BTDETID
360
1000022F
  3
BTPARTID
360
10000230
  0
DICTIONARY
  5
10000232
330
10000231
100
AcDbDictionary
280
     1
  3
BTDETID
360
10000233
  3
BTPARTID
360
10000234
  0
DICTIONARY
  5
10000236
330
10000235
100
AcDbDictionary
280
     1
  3
BTARCONSURFACERADIUS
360
10000239
  3
BTDETID
360
10000237
  3
BTOWNERFACEID_
360
10000238
  3
BTPARTID
360
1000023A
  0
DICTIONARY
  5
1000023C
330
1000023B
100
AcDbDictionary
280
     1
  3
BTDETID
360
1000023D
  3
BTPARTID
360
1000023E
  0
DICTIONARY
  5
10000240
330
1000023F
100
AcDbDictionary
280
     1
  3
BTDETID
360
10000241
  3
BTPARTID
360
10000242
  0
DICTIONARY
  5
10000244
330
10000243
100
AcDbDictionary
280
     1
  3
BTARCONSURFACERADIUS
360
10000247
  3
BTDETID
360
10000245
  3
BTOWNERFACEID_
360
10000246
  3
BTPARTID
360
10000248
  0
DICTIONARY
  5
1000024A
330
10000249
100
AcDbDictionary
280
     1
  3
BTARCONSURFACERADIUS
360
1000024D
  3
BTDETID
360
1000024B
  3
BTOWNERFACEID_
360
1000024C
  3
BTPARTID
360
1000024E
  0
DICTIONARY
  5
10000250
330
1000024F
100
AcDbDictionary
280
     1
  3
BTARCONSURFACERADIUS
360
10000253
  3
BTDETID
360
10000251
  3
BTOWNERFACEID_
360
10000252
  3
BTPARTID
360
10000254
  0
DICTIONARY
  5
10000256
330
10000255
100
AcDbDictionary
280
     1
  3
BTDETID
360
10000257
  3
BTPARTID
360
10000258
  0
DICTIONARY
  5
1000025A
330
10000259
100
AcDbDictionary
280
     1
  3
BTDETID
360
1000025B
  3
BTPARTID
360
1000025C
  0
DICTIONARY
  5
1000025E
330
1000025D
100
AcDbDictionary
280
     1
  3
BTARCONSURFACERADIUS
360
10000261
  3
BTDETID
360
1000025F
  3
BTOWNERFACEID_
360
10000260
  3
BTPARTID
360
10000262
  0
DICTIONARY
  5
10000264
330
10000263
100
AcDbDictionary
280
     1
  3
BTDETID
360
10000265
  3
BTPARTID
360
10000266
  0
DICTIONARY
  5
10000268
330
10000267
100
AcDbDictionary
280
     1
  3
BTDETID
360
10000269
  3
BTPARTID
360
1000026A
  0
DICTIONARY
  5
1000026C
330
1000026B
100
AcDbDictionary
280
     1
  3
BTARCONSURFACERADIUS
360
1000026F
  3
BTDETID
360
1000026D
  3
BTOWNERFACEID_
360
1000026E
  3
BTPARTID
360
10000270
  0
DICTIONARY
  5
10000272
330
10000271
100
AcDbDictionary
280
     1
  3
BTARCONSURFACERADIUS
360
10000275
  3
BTDETID
360
10000273
  3
BTOWNERFACEID_
360
10000274
  3
BTPARTID
360
10000276
  0
DICTIONARY
  5
10000278
330
10000277
100
AcDbDictionary
280
     1
  3
BTARCONSURFACERADIUS
360
1000027B
  3
BTDETID
360
10000279
  3
BTOWNERFACEID_
360
1000027A
  3
BTPARTID
360
1000027C
  0
DICTIONARY
  5
1000027E
330
1000027D
100
AcDbDictionary
280
     1
  3
BTDETID
360
1000027F
  3
BTPARTID
360
10000280
  0
DICTIONARY
  5
10000282
330
10000281
100
AcDbDictionary
280
     1
  3
BTDETID
360
10000283
  3
BTPARTID
360
10000284
  0
DICTIONARY
  5
10000286
330
10000285
100
AcDbDictionary
280
     1
  3
BTARCONSURFACERADIUS
360
10000289
  3
BTDETID
360
10000287
  3
BTOWNERFACEID_
360
10000288
  3
BTPARTID
360
1000028A
  0
DICTIONARY
  5
1000028C
330
1000028B
100
AcDbDictionary
280
     1
  3
BTDETID
360
1000028D
  3
BTPARTID
360
1000028E
  0
DICTIONARY
  5
10000290
330
1000028F
100
AcDbDictionary
280
     1
  3
BTDETID
360
10000291
  3
BTPARTID
360
10000292
  0
DICTIONARY
  5
10000294
330
10000293
100
AcDbDictionary
280
     1
  3
BTARCONSURFACERADIUS
360
10000297
  3
BTDETID
360
10000295
  3
BTOWNERFACEID_
360
10000296
  3
BTPARTID
360
10000298
  0
DICTIONARY
  5
1000029A
330
10000299
100
AcDbDictionary
280
     1
  3
BTARCONSURFACERADIUS
360
1000029D
  3
BTDETID
360
1000029B
  3
BTOWNERFACEID_
360
1000029C
  3
BTPARTID
360
1000029E
  0
DICTIONARY
  5
100002A0
330
1000029F
100
AcDbDictionary
280
     1
  3
BTARCONSURFACERADIUS
360
100002A3
  3
BTDETID
360
100002A1
  3
BTOWNERFACEID_
360
100002A2
  3
BTPARTID
360
100002A4
  0
DICTIONARY
  5
100002A6
330
100002A5
100
AcDbDictionary
280
     1
  3
BTDETID
360
100002A7
  3
BTPARTID
360
100002A8
  0
DICTIONARY
  5
100002AA
330
100002A9
100
AcDbDictionary
280
     1
  3
BTDETID
360
100002AB
  3
BTPARTID
360
100002AC
  0
DICTIONARY
  5
100002AE
330
100002AD
100
AcDbDictionary
280
     1
  3
BTARCONSURFACERADIUS
360
100002B1
  3
BTDETID
360
100002AF
  3
BTOWNERFACEID_
360
100002B0
  3
BTPARTID
360
100002B2
  0
DICTIONARY
  5
100002B4
330
100002B3
100
AcDbDictionary
280
     1
  3
BTDETID
360
100002B5
  3
BTPARTID
360
100002B6
  0
DICTIONARY
  5
100002B8
330
100002B7
100
AcDbDictionary
280
     1
  3
BTDETID
360
100002B9
  3
BTPARTID
360
100002BA
  0
DICTIONARY
  5
100002BC
330
100002BB
100
AcDbDictionary
280
     1
  3
BTARCONSURFACERADIUS
360
100002BF
  3
BTDETID
360
100002BD
  3
BTOWNERFACEID_
360
100002BE
  3
BTPARTID
360
100002C0
  0
DICTIONARY
  5
100002C2
330
100002C1
100
AcDbDictionary
280
     1
  3
BTARCONSURFACERADIUS
360
100002C5
  3
BTDETID
360
100002C3
  3
BTOWNERFACEID_
360
100002C4
  3
BTPARTID
360
100002C6
  0
DICTIONARY
  5
100002C8
330
100002C7
100
AcDbDictionary
280
     1
  3
BTARCONSURFACERADIUS
360
100002CB
  3
BTDETID
360
100002C9
  3
BTOWNERFACEID_
360
100002CA
  3
BTPARTID
360
100002CC
  0
DICTIONARY
  5
100002CE
330
100002CD
100
AcDbDictionary
280
     1
  3
BTDETID
360
100002CF
  3
BTPARTID
360
100002D0
  0
DICTIONARY
  5
100002D2
330
100002D1
100
AcDbDictionary
280
     1
  3
BTDETID
360
100002D3
  3
BTPARTID
360
100002D4
  0
DICTIONARY
  5
100002D6
330
100002D5
100
AcDbDictionary
280
     1
  3
BTARCONSURFACERADIUS
360
100002D9
  3
BTDETID
360
100002D7
  3
BTOWNERFACEID_
360
100002D8
  3
BTPARTID
360
100002DA
  0
DICTIONARY
  5
100002DC
330
100002DB
100
AcDbDictionary
280
     1
  3
BTDETID
360
100002DD
  3
BTPARTID
360
100002DE
  0
DICTIONARY
  5
100002E0
330
100002DF
100
AcDbDictionary
280
     1
  3
BTDETID
360
100002E1
  3
BTPARTID
360
100002E2
  0
DICTIONARY
  5
100002E4
330
100002E3
100
AcDbDictionary
280
     1
  3
BTARCONSURFACERADIUS
360
100002E7
  3
BTDETID
360
100002E5
  3
BTOWNERFACEID_
360
100002E6
  3
BTPARTID
360
100002E8
  0
DICTIONARY
  5
100002EA
330
100002E9
100
AcDbDictionary
280
     1
  3
BTARCONSURFACERADIUS
360
100002ED
  3
BTDETID
360
100002EB
  3
BTOWNERFACEID_
360
100002EC
  3
BTPARTID
360
100002EE
  0
DICTIONARY
  5
100002F0
330
100002EF
100
AcDbDictionary
280
     1
  3
BTARCONSURFACERADIUS
360
100002F3
  3
BTDETID
360
100002F1
  3
BTOWNERFACEID_
360
100002F2
  3
BTPARTID
360
100002F4
  0
DICTIONARY
  5
100002F6
330
100002F5
100
AcDbDictionary
280
     1
  3
BTDETID
360
100002F7
  3
BTPARTID
360
100002F8
  0
DICTIONARY
  5
100002FA
330
100002F9
100
AcDbDictionary
280
     1
  3
BTDETID
360
100002FB
  3
BTPARTID
360
100002FC
  0
DICTIONARY
  5
100002FE
330
100002FD
100
AcDbDictionary
280
     1
  3
BTARCONSURFACERADIUS
360
10000301
  3
BTDETID
360
100002FF
  3
BTOWNERFACEID_
360
10000300
  3
BTPARTID
360
10000302
  0
DICTIONARY
  5
10000304
330
10000303
100
AcDbDictionary
280
     1
  3
BTDETID
360
10000305
  3
BTPARTID
360
10000306
  0
DICTIONARY
  5
10000308
330
10000307
100
AcDbDictionary
280
     1
  3
BTDETID
360
10000309
  3
BTPARTID
360
1000030A
  0
DICTIONARY
  5
1000030C
330
1000030B
100
AcDbDictionary
280
     1
  3
BTARCONSURFACERADIUS
360
1000030F
  3
BTDETID
360
1000030D
  3
BTOWNERFACEID_
360
1000030E
  3
BTPARTID
360
10000310
  0
DICTIONARY
  5
10000312
330
10000311
100
AcDbDictionary
280
     1
  3
BTARCONSURFACERADIUS
360
10000315
  3
BTDETID
360
10000313
  3
BTOWNERFACEID_
360
10000314
  3
BTPARTID
360
10000316
  0
DICTIONARY
  5
10000318
330
10000317
100
AcDbDictionary
280
     1
  3
BTARCONSURFACERADIUS
360
1000031B
  3
BTDETID
360
10000319
  3
BTOWNERFACEID_
360
1000031A
  3
BTPARTID
360
1000031C
  0
DICTIONARY
  5
1000031E
330
1000031D
100
AcDbDictionary
280
     1
  3
BTDETID
360
1000031F
  3
BTPARTID
360
10000320
  0
DICTIONARY
  5
10000322
330
10000321
100
AcDbDictionary
280
     1
  3
BTDETID
360
10000323
  3
BTPARTID
360
10000324
  0
DICTIONARY
  5
10000326
330
10000325
100
AcDbDictionary
280
     1
  3
BTARCONSURFACERADIUS
360
10000329
  3
BTDETID
360
10000327
  3
BTOWNERFACEID_
360
10000328
  3
BTPARTID
360
1000032A
  0
DICTIONARY
  5
1000032C
330
1000032B
100
AcDbDictionary
280
     1
  3
BTDETID
360
1000032D
  3
BTPARTID
360
1000032E
  0
DICTIONARY
  5
10000330
330
1000032F
100
AcDbDictionary
280
     1
  3
BTDETID
360
10000331
  3
BTPARTID
360
10000332
  0
DICTIONARY
  5
10000334
330
10000333
100
AcDbDictionary
280
     1
  3
BTARCONSURFACERADIUS
360
10000337
  3
BTDETID
360
10000335
  3
BTOWNERFACEID_
360
10000336
  3
BTPARTID
360
10000338
  0
DICTIONARY
  5
1000033A
330
10000339
100
AcDbDictionary
280
     1
  3
BTARCONSURFACERADIUS
360
1000033D
  3
BTDETID
360
1000033B
  3
BTOWNERFACEID_
360
1000033C
  3
BTPARTID
360
1000033E
  0
DICTIONARY
  5
10000340
330
1000033F
100
AcDbDictionary
280
     1
  3
BTARCONSURFACERADIUS
360
10000343
  3
BTDETID
360
10000341
  3
BTOWNERFACEID_
360
10000342
  3
BTPARTID
360
10000344
  0
DICTIONARY
  5
D
102
{ACAD_REACTORS
330
C
102
}
330
C
100
AcDbDictionary
  0
DICTIONARY
  5
1A
102
{ACAD_REACTORS
330
C
102
}
330
C
100
AcDbDictionary
  0
DICTIONARY
  5
43
102
{ACAD_REACTORS
330
C
102
}
330
C
100
AcDbDictionary
  3
BYBLOCK
350
45
  3
BYLAYER
350
44
  3
GLOBAL
350
46
  0
DICTIONARY
  5
5B
102
{ACAD_REACTORS
330
C
102
}
330
C
100
AcDbDictionary
  3
STANDARD
350
5C
  0
DICTIONARY
  5
17
102
{ACAD_REACTORS
330
C
102
}
330
C
100
AcDbDictionary
  3
STANDARD
350
18
  0
DICTIONARY
  5
19
102
{ACAD_REACTORS
330
C
102
}
330
C
100
AcDbDictionary
  0
DICTIONARY
  5
47
102
{ACAD_REACTORS
330
C
102
}
330
C
100
AcDbDictionary
  3
SCALE100_1
350
10000023
  3
SCALE10_1
350
1000001D
  3
SCALE12_1
350
1000001E
  3
SCALE16_1
350
1000001F
  3
SCALE1_1
350
10000006
  3
SCALE1_10
350
1000000D
  3
SCALE1_100
350
10000016
  3
SCALE1_12
350
1000000E
  3
SCALE1_16
350
1000000F
  3
SCALE1_2
350
10000007
  3
SCALE1_20
350
10000010
  3
SCALE1_25
350
10000011
  3
SCALE1_3
350
10000008
  3
SCALE1_32
350
10000012
  3
SCALE1_4
350
10000009
  3
SCALE1_40
350
10000013
  3
SCALE1_5
350
1000000A
  3
SCALE1_50
350
10000014
  3
SCALE1_6
350
1000000B
  3
SCALE1_8
350
1000000C
  3
SCALE1_80
350
10000015
  3
SCALE20_1
350
10000020
  3
SCALE2_1
350
10000017
  3
SCALE32_1
350
10000021
  3
SCALE3_1
350
10000018
  3
SCALE4_1
350
10000019
  3
SCALE50_1
350
10000022
  3
SCALE5_1
350
1000001A
  3
SCALE6_1
350
1000001B
  3
SCALE8_1
350
1000001C
  0
DICTIONARY
  5
2A
102
{ACAD_REACTORS
330
C
102
}
330
C
100
AcDbDictionary
  3
2DWIREFRAME
350
2F
  3
BASIC
350
32
  3
BRIGHTEN
350
36
  3
COLORCHANGE
350
3A
  3
CONCEPTUAL
350
34
  3
DIM
350
35
  3
EDGECOLOROFF
350
3D
  3
FACEPATTERN
350
39
  3
FLAT
350
2B
  3
FLATWITHEDGES
350
2C
  3
GOURAUD
350
2D
  3
GOURAUDWITHEDGES
350
2E
  3
HIDDEN
350
31
  3
JITTEROFF
350
3B
  3
LINEPATTERN
350
38
  3
OVERHANGOFF
350
3C
  3
REALISTIC
350
33
  3
SHADED
350
42
  3
SHADED_WITH_EDGES
350
41
  3
SHADES_OF_GRAY
350
3E
  3
SKETCHY
350
3F
  3
THICKEN
350
37
  3
WIREFRAME
350
30
  3
X-RAY
350
40
  0
DICTIONARY
  5
10000347
102
{ACAD_REACTORS
330
C
102
}
330
C
100
AcDbDictionary
  3
CEPSNID
350
10000351
  3
CEPSNTYPE
350
10000350
  3
DIMSTYLEDATA
350
10000367
  3
FINGERPRINTGUID
350
10000352
  3
HYPERLINKBASE
350
1000034A
  3
INSUNITS
350
1000034F
  3
LAYOUTDICT
350
1000034C
  3
LWETCUNION
350
1000034E
  3
PLOTSETDICT
350
1000034D
  3
PSVPSCALE
350
10000354
  3
PUCSBASE
350
10000357
  3
PUCSORGBACK
350
1000035D
  3
PUCSORGBOTTOM
350
10000359
  3
PUCSORGFRONT
350
1000035C
  3
PUCSORGLEFT
350
1000035A
  3
PUCSORGRIGHT
350
1000035B
  3
PUCSORGTOP
350
10000358
  3
PUCSORTHOREF
350
10000355
  3
PUCSORTHOVIEW
350
10000356
  3
STYLESHEET
350
1000034B
  3
TSTACKALIGN
350
10000348
  3
TSTACKSIZE
350
10000349
  3
UCSBASE
350
10000360
  3
UCSORGBACK
350
10000366
  3
UCSORGBOTTOM
350
10000362
  3
UCSORGFRONT
350
10000365
  3
UCSORGLEFT
350
10000363
  3
UCSORGRIGHT
350
10000364
  3
UCSORGTOP
350
10000361
  3
UCSORTHOREF
350
1000035E
  3
UCSORTHOVIEW
350
1000035F
  3
VERSIONGUID
350
10000353
  0
DICTIONARY
  5
10000368
102
{ACAD_REACTORS
330
C
102
}
330
C
100
AcDbDictionary
  3
CANNOSCALE
350
10000376
  3
CENTEREXE
350
1000036F
  3
CENTERLTYPEFILE
350
10000370
  3
CMLEADERSTYLE
350
1000036A
  3
CTABLESTYLE
350
10000369
  3
DIMASSOC
350
10000371
  3
HIDETEXT
350
10000372
  3
MSLTSCALE
350
10000377
  3
PSOLHEIGHT
350
1000036C
  3
PSOLWIDTH
350
1000036B
  0
XRECORD
  5
10000373
102
{ACAD_REACTORS
330
C
102
}
330
C
100
AcDbXrecord
  1
DWGPROPS COOKIE
  2

  3

  4

  6
File was created by BTDwgCreate
  7

  8
onshape
  9

300
=
301
=
302
=
303
=
304
=
305
=
306
=
307
=
308
=
309
=
 40
0.0
 41
2461032.052801806
 42
2461032.052801875
  1

 90
        0
  0
DICTIONARY
  5
10000001
102
{ACAD_REACTORS
330
C
102
}
330
C
100
AcDbDictionary
280
     1
  3
DIM_UNITS
360
10000003
  3
DWGGEN_VERSION
360
10000002
  3
FIRST_ANGLE
360
10000005
  0
XRECORD
  5
10000375
102
{ACAD_REACTORS
330
10000374
102
}
330
10000374
100
AcDbXrecord
102
VTR_0.000_0.000_1.000_1.000_VISUALSTYLE
340
2F
102
VTR_0.000_0.000_1.000_1.000_GRIDDISPLAY
 70
     3
102
VTR_0.000_0.000_1.000_1.000_GRIDMAJOR
 70
     5
102
VTR_0.000_0.000_1.000_1.000_DEFAULTLIGHTING
280
     1
102
VTR_0.000_0.000_1.000_1.000_DEFAULTLIGHTINGTYPE
 70
     1
102
VTR_0.000_0.000_1.000_1.000_BRIGHTNESS
141
0.0
102
VTR_0.000_0.000_1.000_1.000_CONTRAST
142
0.0
  0
SORTENTSTABLE
  5
10000346
102
{ACAD_REACTORS
330
10000345
102
}
330
10000345
100
AcDbSortentsTable
330
1F
  0
XRECORD
  5
1000005B
102
{ACAD_REACTORS
330
1000005A
102
}
330
1000005A
100
AcDbXrecord
1000
LFZiK
  0
XRECORD
  5
1000005C
102
{ACAD_REACTORS
330
1000005A
102
}
330
1000005A
100
AcDbXrecord
1000
KFHC
  0
XRECORD
  5
1000005F
102
{ACAD_REACTORS
330
1000005E
102
}
330
1000005E
100
AcDbXrecord
1000
LFliK
  0
XRECORD
  5
10000060
102
{ACAD_REACTORS
330
1000005E
102
}
330
1000005E
100
AcDbXrecord
1000
KFHC
  0
XRECORD
  5
10000063
102
{ACAD_REACTORS
330
10000062
102
}
330
10000062
100
AcDbXrecord
1000
LF9hK
  0
XRECORD
  5
10000064
102
{ACAD_REACTORS
330
10000062
102
}
330
10000062
100
AcDbXrecord
1000
KFHC
  0
XRECORD
  5
10000067
102
{ACAD_REACTORS
330
10000066
102
}
330
10000066
100
AcDbXrecord
1000
LFNiK
  0
XRECORD
  5
10000068
102
{ACAD_REACTORS
330
10000066
102
}
330
10000066
100
AcDbXrecord
1000
KFHC
  0
XRECORD
  5
1000006B
102
{ACAD_REACTORS
330
1000006A
102
}
330
1000006A
100
AcDbXrecord
1000
LFphK
  0
XRECORD
  5
1000006C
102
{ACAD_REACTORS
330
1000006A
102
}
330
1000006A
100
AcDbXrecord
1000
KFHC
  0
XRECORD
  5
1000006F
102
{ACAD_REACTORS
330
1000006E
102
}
330
1000006E
100
AcDbXrecord
1000
LF1hK
  0
XRECORD
  5
10000070
102
{ACAD_REACTORS
330
1000006E
102
}
330
1000006E
100
AcDbXrecord
1000
KFHC
  0
XRECORD
  5
10000073
102
{ACAD_REACTORS
330
10000072
102
}
330
10000072
100
AcDbXrecord
1000
LFNhK
  0
XRECORD
  5
10000074
102
{ACAD_REACTORS
330
10000072
102
}
330
10000072
100
AcDbXrecord
1000
KFHC
  0
XRECORD
  5
10000077
102
{ACAD_REACTORS
330
10000076
102
}
330
10000076
100
AcDbXrecord
1000
LFdhK
  0
XRECORD
  5
10000078
102
{ACAD_REACTORS
330
10000076
102
}
330
10000076
100
AcDbXrecord
1000
KFHC
  0
XRECORD
  5
1000007B
102
{ACAD_REACTORS
330
1000007A
102
}
330
1000007A
100
AcDbXrecord
1000
LF5gK
  0
XRECORD
  5
1000007C
102
{ACAD_REACTORS
330
1000007A
102
}
330
1000007A
100
AcDbXrecord
1000
KFHC
  0
XRECORD
  5
1000007F
102
{ACAD_REACTORS
330
1000007E
102
}
330
1000007E
100
AcDbXrecord
1000
LFFhK
  0
XRECORD
  5
10000080
102
{ACAD_REACTORS
330
1000007E
102
}
330
1000007E
100
AcDbXrecord
1000
KFHC
  0
XRECORD
  5
10000083
102
{ACAD_REACTORS
330
10000082
102
}
330
10000082
100
AcDbXrecord
1000
LFdgK
  0
XRECORD
  5
10000084
102
{ACAD_REACTORS
330
10000082
102
}
330
10000082
100
AcDbXrecord
1000
KFHC
  0
XRECORD
  5
10000087
102
{ACAD_REACTORS
330
10000086
102
}
330
10000086
100
AcDbXrecord
1000
LFtgK
  0
XRECORD
  5
10000088
102
{ACAD_REACTORS
330
10000086
102
}
330
10000086
100
AcDbXrecord
1000
KFHC
  0
XRECORD
  5
1000008B
102
{ACAD_REACTORS
330
1000008A
102
}
330
1000008A
100
AcDbXrecord
1000
LFJgK
  0
XRECORD
  5
1000008C
102
{ACAD_REACTORS
330
1000008A
102
}
330
1000008A
100
AcDbXrecord
1000
KFHC
  0
XRECORD
  5
1000008F
102
{ACAD_REACTORS
330
1000008E
102
}
330
1000008E
100
AcDbXrecord
1000
LFVgK
  0
XRECORD
  5
10000090
102
{ACAD_REACTORS
330
1000008E
102
}
330
1000008E
100
AcDbXrecord
1000
KFHC
  0
XRECORD
  5
10000093
102
{ACAD_REACTORS
330
10000092
102
}
330
10000092
100
AcDbXrecord
1000
LFtfK
  0
XRECORD
  5
10000094
102
{ACAD_REACTORS
330
10000092
102
}
330
10000092
100
AcDbXrecord
1000
KFHC
  0
XRECORD
  5
10000097
102
{ACAD_REACTORS
330
10000096
102
}
330
10000096
100
AcDbXrecord
1000
LF9fK
  0
XRECORD
  5
10000098
102
{ACAD_REACTORS
330
10000096
102
}
330
10000096
100
AcDbXrecord
1000
KFHC
  0
XRECORD
  5
1000009B
102
{ACAD_REACTORS
330
1000009A
102
}
330
1000009A
100
AcDbXrecord
1000
LFZfK
  0
XRECORD
  5
1000009C
102
{ACAD_REACTORS
330
1000009A
102
}
330
1000009A
100
AcDbXrecord
1000
KFHC
  0
XRECORD
  5
1000009F
102
{ACAD_REACTORS
330
1000009E
102
}
330
1000009E
100
AcDbXrecord
1000
LFlfK
  0
XRECORD
  5
100000A0
102
{ACAD_REACTORS
330
1000009E
102
}
330
1000009E
100
AcDbXrecord
1000
KFHC
  0
XRECORD
  5
100000A3
102
{ACAD_REACTORS
330
100000A2
102
}
330
100000A2
100
AcDbXrecord
1000
LF9eK
  0
XRECORD
  5
100000A4
102
{ACAD_REACTORS
330
100000A2
102
}
330
100000A2
100
AcDbXrecord
1000
KFHC
  0
XRECORD
  5
100000A7
102
{ACAD_REACTORS
330
100000A6
102
}
330
100000A6
100
AcDbXrecord
1000
LFNfK
  0
XRECORD
  5
100000A8
102
{ACAD_REACTORS
330
100000A6
102
}
330
100000A6
100
AcDbXrecord
1000
KFHC
  0
XRECORD
  5
100000AB
102
{ACAD_REACTORS
330
100000AA
102
}
330
100000AA
100
AcDbXrecord
1000
LFpeK
  0
XRECORD
  5
100000AC
102
{ACAD_REACTORS
330
100000AA
102
}
330
100000AA
100
AcDbXrecord
1000
KFHC
  0
XRECORD
  5
100000AF
102
{ACAD_REACTORS
330
100000AE
102
}
330
100000AE
100
AcDbXrecord
1000
LF1eK
  0
XRECORD
  5
100000B0
102
{ACAD_REACTORS
330
100000AE
102
}
330
100000AE
100
AcDbXrecord
1000
KFHC
  0
XRECORD
  5
100000B3
102
{ACAD_REACTORS
330
100000B2
102
}
330
100000B2
100
AcDbXrecord
1000
LFNeK
  0
XRECORD
  5
100000B4
102
{ACAD_REACTORS
330
100000B2
102
}
330
100000B2
100
AcDbXrecord
1000
KFHC
  0
XRECORD
  5
100000B7
102
{ACAD_REACTORS
330
100000B6
102
}
330
100000B6
100
AcDbXrecord
1000
LFdeK
  0
XRECORD
  5
100000B8
102
{ACAD_REACTORS
330
100000B6
102
}
330
100000B6
100
AcDbXrecord
1000
KFHC
  0
XRECORD
  5
100000BB
102
{ACAD_REACTORS
330
100000BA
102
}
330
100000BA
100
AcDbXrecord
1000
LF5dK
  0
XRECORD
  5
100000BC
102
{ACAD_REACTORS
330
100000BA
102
}
330
100000BA
100
AcDbXrecord
1000
KFHC
  0
XRECORD
  5
100000BF
102
{ACAD_REACTORS
330
100000BE
102
}
330
100000BE
100
AcDbXrecord
1000
LFFeK
  0
XRECORD
  5
100000C0
102
{ACAD_REACTORS
330
100000BE
102
}
330
100000BE
100
AcDbXrecord
1000
KFHC
  0
XRECORD
  5
100000C3
102
{ACAD_REACTORS
330
100000C2
102
}
330
100000C2
100
AcDbXrecord
1000
LFddK
  0
XRECORD
  5
100000C4
102
{ACAD_REACTORS
330
100000C2
102
}
330
100000C2
100
AcDbXrecord
1000
KFHC
  0
XRECORD
  5
100000C7
102
{ACAD_REACTORS
330
100000C6
102
}
330
100000C6
100
AcDbXrecord
1000
LFtdK
  0
XRECORD
  5
100000C8
102
{ACAD_REACTORS
330
100000C6
102
}
330
100000C6
100
AcDbXrecord
1000
KFHC
  0
XRECORD
  5
100000CB
102
{ACAD_REACTORS
330
100000CA
102
}
330
100000CA
100
AcDbXrecord
1000
LFJdK
  0
XRECORD
  5
100000CC
102
{ACAD_REACTORS
330
100000CA
102
}
330
100000CA
100
AcDbXrecord
1000
KFHC
  0
XRECORD
  5
100000CF
102
{ACAD_REACTORS
330
100000CE
102
}
330
100000CE
100
AcDbXrecord
1000
LFVdK
  0
XRECORD
  5
100000D0
102
{ACAD_REACTORS
330
100000CE
102
}
330
100000CE
100
AcDbXrecord
1000
KFHC
  0
XRECORD
  5
100000D3
102
{ACAD_REACTORS
330
100000D2
102
}
330
100000D2
100
AcDbXrecord
1000
LFtcK
  0
XRECORD
  5
100000D4
102
{ACAD_REACTORS
330
100000D2
102
}
330
100000D2
100
AcDbXrecord
1000
KFHC
  0
XRECORD
  5
100000D7
102
{ACAD_REACTORS
330
100000D6
102
}
330
100000D6
100
AcDbXrecord
1000
LF9cK
  0
XRECORD
  5
100000D8
102
{ACAD_REACTORS
330
100000D6
102
}
330
100000D6
100
AcDbXrecord
1000
KFHC
  0
XRECORD
  5
100000DB
102
{ACAD_REACTORS
330
100000DA
102
}
330
100000DA
100
AcDbXrecord
1000
LFZcK
  0
XRECORD
  5
100000DC
102
{ACAD_REACTORS
330
100000DA
102
}
330
100000DA
100
AcDbXrecord
1000
KFHC
  0
XRECORD
  5
100000DF
102
{ACAD_REACTORS
330
100000DE
102
}
330
100000DE
100
AcDbXrecord
1000
LFlcK
  0
XRECORD
  5
100000E0
102
{ACAD_REACTORS
330
100000DE
102
}
330
100000DE
100
AcDbXrecord
1000
KFHC
  0
XRECORD
  5
100000E3
102
{ACAD_REACTORS
330
100000E2
102
}
330
100000E2
100
AcDbXrecord
1000
LF9bK
  0
XRECORD
  5
100000E4
102
{ACAD_REACTORS
330
100000E2
102
}
330
100000E2
100
AcDbXrecord
1000
KFHC
  0
XRECORD
  5
100000E7
102
{ACAD_REACTORS
330
100000E6
102
}
330
100000E6
100
AcDbXrecord
1000
LFNcK
  0
XRECORD
  5
100000E8
102
{ACAD_REACTORS
330
100000E6
102
}
330
100000E6
100
AcDbXrecord
1000
KFHC
  0
XRECORD
  5
100000EB
102
{ACAD_REACTORS
330
100000EA
102
}
330
100000EA
100
AcDbXrecord
1000
LFpbK
  0
XRECORD
  5
100000EC
102
{ACAD_REACTORS
330
100000EA
102
}
330
100000EA
100
AcDbXrecord
1000
KFHC
  0
XRECORD
  5
100000EF
102
{ACAD_REACTORS
330
100000EE
102
}
330
100000EE
100
AcDbXrecord
1000
LF1bK
  0
XRECORD
  5
100000F0
102
{ACAD_REACTORS
330
100000EE
102
}
330
100000EE
100
AcDbXrecord
1000
KFHC
  0
XRECORD
  5
100000F3
102
{ACAD_REACTORS
330
100000F2
102
}
330
100000F2
100
AcDbXrecord
1000
LFNbK
  0
XRECORD
  5
100000F4
102
{ACAD_REACTORS
330
100000F2
102
}
330
100000F2
100
AcDbXrecord
1000
KFHC
  0
XRECORD
  5
100000F7
102
{ACAD_REACTORS
330
100000F6
102
}
330
100000F6
100
AcDbXrecord
1000
LFdbK
  0
XRECORD
  5
100000F8
102
{ACAD_REACTORS
330
100000F6
102
}
330
100000F6
100
AcDbXrecord
1000
KFHC
  0
XRECORD
  5
100000FB
102
{ACAD_REACTORS
330
100000FA
102
}
330
100000FA
100
AcDbXrecord
1000
LF5aK
  0
XRECORD
  5
100000FC
102
{ACAD_REACTORS
330
100000FA
102
}
330
100000FA
100
AcDbXrecord
1000
KFHC
  0
XRECORD
  5
100000FF
102
{ACAD_REACTORS
330
100000FE
102
}
330
100000FE
100
AcDbXrecord
1000
LFFbK
  0
XRECORD
  5
10000100
102
{ACAD_REACTORS
330
100000FE
102
}
330
100000FE
100
AcDbXrecord
1000
KFHC
  0
XRECORD
  5
10000103
102
{ACAD_REACTORS
330
10000102
102
}
330
10000102
100
AcDbXrecord
1000
LFdaK
  0
XRECORD
  5
10000104
102
{ACAD_REACTORS
330
10000102
102
}
330
10000102
100
AcDbXrecord
1000
KFHC
  0
XRECORD
  5
10000107
102
{ACAD_REACTORS
330
10000106
102
}
330
10000106
100
AcDbXrecord
1000
LFtaK
  0
XRECORD
  5
10000108
102
{ACAD_REACTORS
330
10000106
102
}
330
10000106
100
AcDbXrecord
1000
KFHC
  0
XRECORD
  5
1000010B
102
{ACAD_REACTORS
330
1000010A
102
}
330
1000010A
100
AcDbXrecord
1000
LFJaK
  0
XRECORD
  5
1000010C
102
{ACAD_REACTORS
330
1000010A
102
}
330
1000010A
100
AcDbXrecord
1000
KFHC
  0
XRECORD
  5
1000010F
102
{ACAD_REACTORS
330
1000010E
102
}
330
1000010E
100
AcDbXrecord
1000
LFVaK
  0
XRECORD
  5
10000110
102
{ACAD_REACTORS
330
1000010E
102
}
330
1000010E
100
AcDbXrecord
1000
KFHC
  0
XRECORD
  5
10000113
102
{ACAD_REACTORS
330
10000112
102
}
330
10000112
100
AcDbXrecord
1000
LFtZK
  0
XRECORD
  5
10000114
102
{ACAD_REACTORS
330
10000112
102
}
330
10000112
100
AcDbXrecord
1000
KFHC
  0
XRECORD
  5
10000117
102
{ACAD_REACTORS
330
10000116
102
}
330
10000116
100
AcDbXrecord
1000
LF9ZK
  0
XRECORD
  5
10000118
102
{ACAD_REACTORS
330
10000116
102
}
330
10000116
100
AcDbXrecord
1000
KFHC
  0
XRECORD
  5
1000011D
102
{ACAD_REACTORS
330
1000011A
102
}
330
1000011A
100
AcDbXrecord
 40
2.5
  0
XRECORD
  5
1000011B
102
{ACAD_REACTORS
330
1000011A
102
}
330
1000011A
100
AcDbXrecord
1000
LFpZK
  0
XRECORD
  5
1000011C
102
{ACAD_REACTORS
330
1000011A
102
}
330
1000011A
100
AcDbXrecord
1000
LFWpD
  0
XRECORD
  5
1000011E
102
{ACAD_REACTORS
330
1000011A
102
}
330
1000011A
100
AcDbXrecord
1000
KFHC
  0
XRECORD
  5
10000123
102
{ACAD_REACTORS
330
10000120
102
}
330
10000120
100
AcDbXrecord
 40
2.5
  0
XRECORD
  5
10000121
102
{ACAD_REACTORS
330
10000120
102
}
330
10000120
100
AcDbXrecord
1000
LFhZK
  0
XRECORD
  5
10000122
102
{ACAD_REACTORS
330
10000120
102
}
330
10000120
100
AcDbXrecord
1000
LFWpD
  0
XRECORD
  5
10000124
102
{ACAD_REACTORS
330
10000120
102
}
330
10000120
100
AcDbXrecord
1000
KFHC
  0
XRECORD
  5
10000129
102
{ACAD_REACTORS
330
10000126
102
}
330
10000126
100
AcDbXrecord
 40
2.5
  0
XRECORD
  5
10000127
102
{ACAD_REACTORS
330
10000126
102
}
330
10000126
100
AcDbXrecord
1000
LFZZK
  0
XRECORD
  5
10000128
102
{ACAD_REACTORS
330
10000126
102
}
330
10000126
100
AcDbXrecord
1000
LFWpD
  0
XRECORD
  5
1000012A
102
{ACAD_REACTORS
330
10000126
102
}
330
10000126
100
AcDbXrecord
1000
KFHC
  0
XRECORD
  5
1000012F
102
{ACAD_REACTORS
330
1000012C
102
}
330
1000012C
100
AcDbXrecord
 40
2.5
  0
XRECORD
  5
1000012D
102
{ACAD_REACTORS
330
1000012C
102
}
330
1000012C
100
AcDbXrecord
1000
LFRZK
  0
XRECORD
  5
1000012E
102
{ACAD_REACTORS
330
1000012C
102
}
330
1000012C
100
AcDbXrecord
1000
LFWpD
  0
XRECORD
  5
10000130
102
{ACAD_REACTORS
330
1000012C
102
}
330
1000012C
100
AcDbXrecord
1000
KFHC
  0
XRECORD
  5
10000135
102
{ACAD_REACTORS
330
10000132
102
}
330
10000132
100
AcDbXrecord
 40
11.0
  0
XRECORD
  5
10000133
102
{ACAD_REACTORS
330
10000132
102
}
330
10000132
100
AcDbXrecord
1000
LFdYK
  0
XRECORD
  5
10000134
102
{ACAD_REACTORS
330
10000132
102
}
330
10000132
100
AcDbXrecord
1000
LFWpD
  0
XRECORD
  5
10000136
102
{ACAD_REACTORS
330
10000132
102
}
330
10000132
100
AcDbXrecord
1000
KFHC
  0
XRECORD
  5
10000139
102
{ACAD_REACTORS
330
10000138
102
}
330
10000138
100
AcDbXrecord
1000
LFFZK
  0
XRECORD
  5
1000013A
102
{ACAD_REACTORS
330
10000138
102
}
330
10000138
100
AcDbXrecord
1000
KFHC
  0
XRECORD
  5
1000013F
102
{ACAD_REACTORS
330
1000013C
102
}
330
1000013C
100
AcDbXrecord
 40
4.000000059604639
  0
XRECORD
  5
1000013D
102
{ACAD_REACTORS
330
1000013C
102
}
330
1000013C
100
AcDbXrecord
1000
LF5YK
  0
XRECORD
  5
1000013E
102
{ACAD_REACTORS
330
1000013C
102
}
330
1000013C
100
AcDbXrecord
1000
LFWpD
  0
XRECORD
  5
10000140
102
{ACAD_REACTORS
330
1000013C
102
}
330
1000013C
100
AcDbXrecord
1000
KFHC
  0
XRECORD
  5
10000143
102
{ACAD_REACTORS
330
10000142
102
}
330
10000142
100
AcDbXrecord
1000
LFtYK
  0
XRECORD
  5
10000144
102
{ACAD_REACTORS
330
10000142
102
}
330
10000142
100
AcDbXrecord
1000
KFHC
  0
XRECORD
  5
10000147
102
{ACAD_REACTORS
330
10000146
102
}
330
10000146
100
AcDbXrecord
1000
LF9WK
  0
XRECORD
  5
10000148
102
{ACAD_REACTORS
330
10000146
102
}
330
10000146
100
AcDbXrecord
1000
KFHC
  0
XRECORD
  5
1000014B
102
{ACAD_REACTORS
330
1000014A
102
}
330
1000014A
100
AcDbXrecord
1000
LFVYK
  0
XRECORD
  5
1000014C
102
{ACAD_REACTORS
330
1000014A
102
}
330
1000014A
100
AcDbXrecord
1000
KFHC
  0
XRECORD
  5
1000014F
102
{ACAD_REACTORS
330
1000014E
102
}
330
1000014E
100
AcDbXrecord
1000
LFJYK
  0
XRECORD
  5
10000150
102
{ACAD_REACTORS
330
1000014E
102
}
330
1000014E
100
AcDbXrecord
1000
KFHC
  0
XRECORD
  5
10000153
102
{ACAD_REACTORS
330
10000152
102
}
330
10000152
100
AcDbXrecord
1000
LF9XK
  0
XRECORD
  5
10000154
102
{ACAD_REACTORS
330
10000152
102
}
330
10000152
100
AcDbXrecord
1000
KFHC
  0
XRECORD
  5
10000157
102
{ACAD_REACTORS
330
10000156
102
}
330
10000156
100
AcDbXrecord
1000
LFxXK
  0
XRECORD
  5
10000158
102
{ACAD_REACTORS
330
10000156
102
}
330
10000156
100
AcDbXrecord
1000
KFHC
  0
XRECORD
  5
1000015B
102
{ACAD_REACTORS
330
1000015A
102
}
330
1000015A
100
AcDbXrecord
1000
LFlXK
  0
XRECORD
  5
1000015C
102
{ACAD_REACTORS
330
1000015A
102
}
330
1000015A
100
AcDbXrecord
1000
KFHC
  0
XRECORD
  5
1000015F
102
{ACAD_REACTORS
330
1000015E
102
}
330
1000015E
100
AcDbXrecord
1000
LFZXK
  0
XRECORD
  5
10000160
102
{ACAD_REACTORS
330
1000015E
102
}
330
1000015E
100
AcDbXrecord
1000
KFHC
  0
XRECORD
  5
10000163
102
{ACAD_REACTORS
330
10000162
102
}
330
10000162
100
AcDbXrecord
1000
LFNXK
  0
XRECORD
  5
10000164
102
{ACAD_REACTORS
330
10000162
102
}
330
10000162
100
AcDbXrecord
1000
KFHC
  0
XRECORD
  5
10000167
102
{ACAD_REACTORS
330
10000166
102
}
330
10000166
100
AcDbXrecord
1000
LFtiK
  0
XRECORD
  5
10000168
102
{ACAD_REACTORS
330
10000166
102
}
330
10000166
100
AcDbXrecord
1000
KFHC
  0
XRECORD
  5
1000016B
102
{ACAD_REACTORS
330
1000016A
102
}
330
1000016A
100
AcDbXrecord
1000
LFxiK
  0
XRECORD
  5
1000016C
102
{ACAD_REACTORS
330
1000016A
102
}
330
1000016A
100
AcDbXrecord
1000
KFHC
  0
XRECORD
  5
10000171
102
{ACAD_REACTORS
330
1000016E
102
}
330
1000016E
100
AcDbXrecord
 40
233.33799999999
  0
XRECORD
  5
1000016F
102
{ACAD_REACTORS
330
1000016E
102
}
330
1000016E
100
AcDbXrecord
1000
LF1iK
  0
XRECORD
  5
10000170
102
{ACAD_REACTORS
330
1000016E
102
}
330
1000016E
100
AcDbXrecord
1000
LFWpD
  0
XRECORD
  5
10000172
102
{ACAD_REACTORS
330
1000016E
102
}
330
1000016E
100
AcDbXrecord
1000
KFHC
  0
XRECORD
  5
10000175
102
{ACAD_REACTORS
330
10000174
102
}
330
10000174
100
AcDbXrecord
1000
LF5iK
  0
XRECORD
  5
10000176
102
{ACAD_REACTORS
330
10000174
102
}
330
10000174
100
AcDbXrecord
1000
KFHC
  0
XRECORD
  5
10000179
102
{ACAD_REACTORS
330
10000178
102
}
330
10000178
100
AcDbXrecord
1000
LF9iK
  0
XRECORD
  5
1000017A
102
{ACAD_REACTORS
330
10000178
102
}
330
10000178
100
AcDbXrecord
1000
KFHC
  0
XRECORD
  5
1000017F
102
{ACAD_REACTORS
330
1000017C
102
}
330
1000017C
100
AcDbXrecord
 40
1.5875
  0
XRECORD
  5
1000017D
102
{ACAD_REACTORS
330
1000017C
102
}
330
1000017C
100
AcDbXrecord
1000
LFBjK
  0
XRECORD
  5
1000017E
102
{ACAD_REACTORS
330
1000017C
102
}
330
1000017C
100
AcDbXrecord
1000
LFWpD
  0
XRECORD
  5
10000180
102
{ACAD_REACTORS
330
1000017C
102
}
330
1000017C
100
AcDbXrecord
1000
KFHC
  0
XRECORD
  5
10000185
102
{ACAD_REACTORS
330
10000182
102
}
330
10000182
100
AcDbXrecord
 40
161.436562
  0
XRECORD
  5
10000183
102
{ACAD_REACTORS
330
10000182
102
}
330
10000182
100
AcDbXrecord
1000
LFFjK
  0
XRECORD
  5
10000184
102
{ACAD_REACTORS
330
10000182
102
}
330
10000182
100
AcDbXrecord
1000
LFWpD
  0
XRECORD
  5
10000186
102
{ACAD_REACTORS
330
10000182
102
}
330
10000182
100
AcDbXrecord
1000
KFHC
  0
XRECORD
  5
1000018B
102
{ACAD_REACTORS
330
10000188
102
}
330
10000188
100
AcDbXrecord
 40
1.5875
  0
XRECORD
  5
10000189
102
{ACAD_REACTORS
330
10000188
102
}
330
10000188
100
AcDbXrecord
1000
LFJjK
  0
XRECORD
  5
1000018A
102
{ACAD_REACTORS
330
10000188
102
}
330
10000188
100
AcDbXrecord
1000
LFWpD
  0
XRECORD
  5
1000018C
102
{ACAD_REACTORS
330
10000188
102
}
330
10000188
100
AcDbXrecord
1000
KFHC
  0
XRECORD
  5
1000018F
102
{ACAD_REACTORS
330
1000018E
102
}
330
1000018E
100
AcDbXrecord
1000
LFNjK
  0
XRECORD
  5
10000190
102
{ACAD_REACTORS
330
1000018E
102
}
330
1000018E
100
AcDbXrecord
1000
KFHC
  0
XRECORD
  5
10000193
102
{ACAD_REACTORS
330
10000192
102
}
330
10000192
100
AcDbXrecord
1000
LFRjK
  0
XRECORD
  5
10000194
102
{ACAD_REACTORS
330
10000192
102
}
330
10000192
100
AcDbXrecord
1000
KFHC
  0
XRECORD
  5
10000199
102
{ACAD_REACTORS
330
10000196
102
}
330
10000196
100
AcDbXrecord
 40
233.33799999999
  0
XRECORD
  5
10000197
102
{ACAD_REACTORS
330
10000196
102
}
330
10000196
100
AcDbXrecord
1000
LFVjK
  0
XRECORD
  5
10000198
102
{ACAD_REACTORS
330
10000196
102
}
330
10000196
100
AcDbXrecord
1000
LFWpD
  0
XRECORD
  5
1000019A
102
{ACAD_REACTORS
330
10000196
102
}
330
10000196
100
AcDbXrecord
1000
KFHC
  0
XRECORD
  5
1000019D
102
{ACAD_REACTORS
330
1000019C
102
}
330
1000019C
100
AcDbXrecord
1000
LFZjK
  0
XRECORD
  5
1000019E
102
{ACAD_REACTORS
330
1000019C
102
}
330
1000019C
100
AcDbXrecord
1000
KFHC
  0
XRECORD
  5
100001A1
102
{ACAD_REACTORS
330
100001A0
102
}
330
100001A0
100
AcDbXrecord
1000
LFdjK
  0
XRECORD
  5
100001A2
102
{ACAD_REACTORS
330
100001A0
102
}
330
100001A0
100
AcDbXrecord
1000
KFHC
  0
XRECORD
  5
100001A7
102
{ACAD_REACTORS
330
100001A4
102
}
330
100001A4
100
AcDbXrecord
 40
1.5875
  0
XRECORD
  5
100001A5
102
{ACAD_REACTORS
330
100001A4
102
}
330
100001A4
100
AcDbXrecord
1000
LFhjK
  0
XRECORD
  5
100001A6
102
{ACAD_REACTORS
330
100001A4
102
}
330
100001A4
100
AcDbXrecord
1000
LFWpD
  0
XRECORD
  5
100001A8
102
{ACAD_REACTORS
330
100001A4
102
}
330
100001A4
100
AcDbXrecord
1000
KFHC
  0
XRECORD
  5
100001AD
102
{ACAD_REACTORS
330
100001AA
102
}
330
100001AA
100
AcDbXrecord
 40
161.436562
  0
XRECORD
  5
100001AB
102
{ACAD_REACTORS
330
100001AA
102
}
330
100001AA
100
AcDbXrecord
1000
LFljK
  0
XRECORD
  5
100001AC
102
{ACAD_REACTORS
330
100001AA
102
}
330
100001AA
100
AcDbXrecord
1000
LFWpD
  0
XRECORD
  5
100001AE
102
{ACAD_REACTORS
330
100001AA
102
}
330
100001AA
100
AcDbXrecord
1000
KFHC
  0
XRECORD
  5
100001B3
102
{ACAD_REACTORS
330
100001B0
102
}
330
100001B0
100
AcDbXrecord
 40
1.5875
  0
XRECORD
  5
100001B1
102
{ACAD_REACTORS
330
100001B0
102
}
330
100001B0
100
AcDbXrecord
1000
LFpjK
  0
XRECORD
  5
100001B2
102
{ACAD_REACTORS
330
100001B0
102
}
330
100001B0
100
AcDbXrecord
1000
LFWpD
  0
XRECORD
  5
100001B4
102
{ACAD_REACTORS
330
100001B0
102
}
330
100001B0
100
AcDbXrecord
1000
KFHC
  0
XRECORD
  5
100001B7
102
{ACAD_REACTORS
330
100001B6
102
}
330
100001B6
100
AcDbXrecord
1000
LFtjK
  0
XRECORD
  5
100001B8
102
{ACAD_REACTORS
330
100001B6
102
}
330
100001B6
100
AcDbXrecord
1000
KFHC
  0
XRECORD
  5
100001BB
102
{ACAD_REACTORS
330
100001BA
102
}
330
100001BA
100
AcDbXrecord
1000
LFxjK
  0
XRECORD
  5
100001BC
102
{ACAD_REACTORS
330
100001BA
102
}
330
100001BA
100
AcDbXrecord
1000
KFHC
  0
XRECORD
  5
100001C1
102
{ACAD_REACTORS
330
100001BE
102
}
330
100001BE
100
AcDbXrecord
 40
233.33799999999
  0
XRECORD
  5
100001BF
102
{ACAD_REACTORS
330
100001BE
102
}
330
100001BE
100
AcDbXrecord
1000
LF1jK
  0
XRECORD
  5
100001C0
102
{ACAD_REACTORS
330
100001BE
102
}
330
100001BE
100
AcDbXrecord
1000
LFWpD
  0
XRECORD
  5
100001C2
102
{ACAD_REACTORS
330
100001BE
102
}
330
100001BE
100
AcDbXrecord
1000
KFHC
  0
XRECORD
  5
100001C5
102
{ACAD_REACTORS
330
100001C4
102
}
330
100001C4
100
AcDbXrecord
1000
LF5jK
  0
XRECORD
  5
100001C6
102
{ACAD_REACTORS
330
100001C4
102
}
330
100001C4
100
AcDbXrecord
1000
KFHC
  0
XRECORD
  5
100001C9
102
{ACAD_REACTORS
330
100001C8
102
}
330
100001C8
100
AcDbXrecord
1000
LF9jK
  0
XRECORD
  5
100001CA
102
{ACAD_REACTORS
330
100001C8
102
}
330
100001C8
100
AcDbXrecord
1000
KFHC
  0
XRECORD
  5
100001CF
102
{ACAD_REACTORS
330
100001CC
102
}
330
100001CC
100
AcDbXrecord
 40
1.5875
  0
XRECORD
  5
100001CD
102
{ACAD_REACTORS
330
100001CC
102
}
330
100001CC
100
AcDbXrecord
1000
LFBkK
  0
XRECORD
  5
100001CE
102
{ACAD_REACTORS
330
100001CC
102
}
330
100001CC
100
AcDbXrecord
1000
LFWpD
  0
XRECORD
  5
100001D0
102
{ACAD_REACTORS
330
100001CC
102
}
330
100001CC
100
AcDbXrecord
1000
KFHC
  0
XRECORD
  5
100001D5
102
{ACAD_REACTORS
330
100001D2
102
}
330
100001D2
100
AcDbXrecord
 40
161.436562
  0
XRECORD
  5
100001D3
102
{ACAD_REACTORS
330
100001D2
102
}
330
100001D2
100
AcDbXrecord
1000
LFFkK
  0
XRECORD
  5
100001D4
102
{ACAD_REACTORS
330
100001D2
102
}
330
100001D2
100
AcDbXrecord
1000
LFWpD
  0
XRECORD
  5
100001D6
102
{ACAD_REACTORS
330
100001D2
102
}
330
100001D2
100
AcDbXrecord
1000
KFHC
  0
XRECORD
  5
100001DB
102
{ACAD_REACTORS
330
100001D8
102
}
330
100001D8
100
AcDbXrecord
 40
1.5875
  0
XRECORD
  5
100001D9
102
{ACAD_REACTORS
330
100001D8
102
}
330
100001D8
100
AcDbXrecord
1000
LFJkK
  0
XRECORD
  5
100001DA
102
{ACAD_REACTORS
330
100001D8
102
}
330
100001D8
100
AcDbXrecord
1000
LFWpD
  0
XRECORD
  5
100001DC
102
{ACAD_REACTORS
330
100001D8
102
}
330
100001D8
100
AcDbXrecord
1000
KFHC
  0
XRECORD
  5
100001DF
102
{ACAD_REACTORS
330
100001DE
102
}
330
100001DE
100
AcDbXrecord
1000
LFNkK
  0
XRECORD
  5
100001E0
102
{ACAD_REACTORS
330
100001DE
102
}
330
100001DE
100
AcDbXrecord
1000
KFHC
  0
XRECORD
  5
100001E3
102
{ACAD_REACTORS
330
100001E2
102
}
330
100001E2
100
AcDbXrecord
1000
LFRkK
  0
XRECORD
  5
100001E4
102
{ACAD_REACTORS
330
100001E2
102
}
330
100001E2
100
AcDbXrecord
1000
KFHC
  0
XRECORD
  5
100001E9
102
{ACAD_REACTORS
330
100001E6
102
}
330
100001E6
100
AcDbXrecord
 40
233.33799999999
  0
XRECORD
  5
100001E7
102
{ACAD_REACTORS
330
100001E6
102
}
330
100001E6
100
AcDbXrecord
1000
LFVkK
  0
XRECORD
  5
100001E8
102
{ACAD_REACTORS
330
100001E6
102
}
330
100001E6
100
AcDbXrecord
1000
LFWpD
  0
XRECORD
  5
100001EA
102
{ACAD_REACTORS
330
100001E6
102
}
330
100001E6
100
AcDbXrecord
1000
KFHC
  0
XRECORD
  5
100001ED
102
{ACAD_REACTORS
330
100001EC
102
}
330
100001EC
100
AcDbXrecord
1000
LFZkK
  0
XRECORD
  5
100001EE
102
{ACAD_REACTORS
330
100001EC
102
}
330
100001EC
100
AcDbXrecord
1000
KFHC
  0
XRECORD
  5
100001F1
102
{ACAD_REACTORS
330
100001F0
102
}
330
100001F0
100
AcDbXrecord
1000
LFdkK
  0
XRECORD
  5
100001F2
102
{ACAD_REACTORS
330
100001F0
102
}
330
100001F0
100
AcDbXrecord
1000
KFHC
  0
XRECORD
  5
100001F7
102
{ACAD_REACTORS
330
100001F4
102
}
330
100001F4
100
AcDbXrecord
 40
1.5875
  0
XRECORD
  5
100001F5
102
{ACAD_REACTORS
330
100001F4
102
}
330
100001F4
100
AcDbXrecord
1000
LFhkK
  0
XRECORD
  5
100001F6
102
{ACAD_REACTORS
330
100001F4
102
}
330
100001F4
100
AcDbXrecord
1000
LFWpD
  0
XRECORD
  5
100001F8
102
{ACAD_REACTORS
330
100001F4
102
}
330
100001F4
100
AcDbXrecord
1000
KFHC
  0
XRECORD
  5
100001FD
102
{ACAD_REACTORS
330
100001FA
102
}
330
100001FA
100
AcDbXrecord
 40
161.436562
  0
XRECORD
  5
100001FB
102
{ACAD_REACTORS
330
100001FA
102
}
330
100001FA
100
AcDbXrecord
1000
LFlkK
  0
XRECORD
  5
100001FC
102
{ACAD_REACTORS
330
100001FA
102
}
330
100001FA
100
AcDbXrecord
1000
LFWpD
  0
XRECORD
  5
100001FE
102
{ACAD_REACTORS
330
100001FA
102
}
330
100001FA
100
AcDbXrecord
1000
KFHC
  0
XRECORD
  5
10000203
102
{ACAD_REACTORS
330
10000200
102
}
330
10000200
100
AcDbXrecord
 40
1.5875
  0
XRECORD
  5
10000201
102
{ACAD_REACTORS
330
10000200
102
}
330
10000200
100
AcDbXrecord
1000
LFpkK
  0
XRECORD
  5
10000202
102
{ACAD_REACTORS
330
10000200
102
}
330
10000200
100
AcDbXrecord
1000
LFWpD
  0
XRECORD
  5
10000204
102
{ACAD_REACTORS
330
10000200
102
}
330
10000200
100
AcDbXrecord
1000
KFHC
  0
XRECORD
  5
10000207
102
{ACAD_REACTORS
330
10000206
102
}
330
10000206
100
AcDbXrecord
1000
LFtkK
  0
XRECORD
  5
10000208
102
{ACAD_REACTORS
330
10000206
102
}
330
10000206
100
AcDbXrecord
1000
KFHC
  0
XRECORD
  5
1000020B
102
{ACAD_REACTORS
330
1000020A
102
}
330
1000020A
100
AcDbXrecord
1000
LFxkK
  0
XRECORD
  5
1000020C
102
{ACAD_REACTORS
330
1000020A
102
}
330
1000020A
100
AcDbXrecord
1000
KFHC
  0
XRECORD
  5
10000211
102
{ACAD_REACTORS
330
1000020E
102
}
330
1000020E
100
AcDbXrecord
 40
233.33799999999
  0
XRECORD
  5
1000020F
102
{ACAD_REACTORS
330
1000020E
102
}
330
1000020E
100
AcDbXrecord
1000
LF1kK
  0
XRECORD
  5
10000210
102
{ACAD_REACTORS
330
1000020E
102
}
330
1000020E
100
AcDbXrecord
1000
LFWpD
  0
XRECORD
  5
10000212
102
{ACAD_REACTORS
330
1000020E
102
}
330
1000020E
100
AcDbXrecord
1000
KFHC
  0
XRECORD
  5
10000215
102
{ACAD_REACTORS
330
10000214
102
}
330
10000214
100
AcDbXrecord
1000
LF5kK
  0
XRECORD
  5
10000216
102
{ACAD_REACTORS
330
10000214
102
}
330
10000214
100
AcDbXrecord
1000
KFHC
  0
XRECORD
  5
10000219
102
{ACAD_REACTORS
330
10000218
102
}
330
10000218
100
AcDbXrecord
1000
LF9kK
  0
XRECORD
  5
1000021A
102
{ACAD_REACTORS
330
10000218
102
}
330
10000218
100
AcDbXrecord
1000
KFHC
  0
XRECORD
  5
1000021F
102
{ACAD_REACTORS
330
1000021C
102
}
330
1000021C
100
AcDbXrecord
 40
1.5875
  0
XRECORD
  5
1000021D
102
{ACAD_REACTORS
330
1000021C
102
}
330
1000021C
100
AcDbXrecord
1000
LFBlK
  0
XRECORD
  5
1000021E
102
{ACAD_REACTORS
330
1000021C
102
}
330
1000021C
100
AcDbXrecord
1000
LFWpD
  0
XRECORD
  5
10000220
102
{ACAD_REACTORS
330
1000021C
102
}
330
1000021C
100
AcDbXrecord
1000
KFHC
  0
XRECORD
  5
10000225
102
{ACAD_REACTORS
330
10000222
102
}
330
10000222
100
AcDbXrecord
 40
161.436562
  0
XRECORD
  5
10000223
102
{ACAD_REACTORS
330
10000222
102
}
330
10000222
100
AcDbXrecord
1000
LFFlK
  0
XRECORD
  5
10000224
102
{ACAD_REACTORS
330
10000222
102
}
330
10000222
100
AcDbXrecord
1000
LFWpD
  0
XRECORD
  5
10000226
102
{ACAD_REACTORS
330
10000222
102
}
330
10000222
100
AcDbXrecord
1000
KFHC
  0
XRECORD
  5
1000022B
102
{ACAD_REACTORS
330
10000228
102
}
330
10000228
100
AcDbXrecord
 40
1.5875
  0
XRECORD
  5
10000229
102
{ACAD_REACTORS
330
10000228
102
}
330
10000228
100
AcDbXrecord
1000
LFJlK
  0
XRECORD
  5
1000022A
102
{ACAD_REACTORS
330
10000228
102
}
330
10000228
100
AcDbXrecord
1000
LFWpD
  0
XRECORD
  5
1000022C
102
{ACAD_REACTORS
330
10000228
102
}
330
10000228
100
AcDbXrecord
1000
KFHC
  0
XRECORD
  5
1000022F
102
{ACAD_REACTORS
330
1000022E
102
}
330
1000022E
100
AcDbXrecord
1000
LFNlK
  0
XRECORD
  5
10000230
102
{ACAD_REACTORS
330
1000022E
102
}
330
1000022E
100
AcDbXrecord
1000
KFHC
  0
XRECORD
  5
10000233
102
{ACAD_REACTORS
330
10000232
102
}
330
10000232
100
AcDbXrecord
1000
LFRlK
  0
XRECORD
  5
10000234
102
{ACAD_REACTORS
330
10000232
102
}
330
10000232
100
AcDbXrecord
1000
KFHC
  0
XRECORD
  5
10000239
102
{ACAD_REACTORS
330
10000236
102
}
330
10000236
100
AcDbXrecord
 40
233.33799999999
  0
XRECORD
  5
10000237
102
{ACAD_REACTORS
330
10000236
102
}
330
10000236
100
AcDbXrecord
1000
LFVlK
  0
XRECORD
  5
10000238
102
{ACAD_REACTORS
330
10000236
102
}
330
10000236
100
AcDbXrecord
1000
LFWpD
  0
XRECORD
  5
1000023A
102
{ACAD_REACTORS
330
10000236
102
}
330
10000236
100
AcDbXrecord
1000
KFHC
  0
XRECORD
  5
1000023D
102
{ACAD_REACTORS
330
1000023C
102
}
330
1000023C
100
AcDbXrecord
1000
LFZlK
  0
XRECORD
  5
1000023E
102
{ACAD_REACTORS
330
1000023C
102
}
330
1000023C
100
AcDbXrecord
1000
KFHC
  0
XRECORD
  5
10000241
102
{ACAD_REACTORS
330
10000240
102
}
330
10000240
100
AcDbXrecord
1000
LFdlK
  0
XRECORD
  5
10000242
102
{ACAD_REACTORS
330
10000240
102
}
330
10000240
100
AcDbXrecord
1000
KFHC
  0
XRECORD
  5
10000247
102
{ACAD_REACTORS
330
10000244
102
}
330
10000244
100
AcDbXrecord
 40
1.5875
  0
XRECORD
  5
10000245
102
{ACAD_REACTORS
330
10000244
102
}
330
10000244
100
AcDbXrecord
1000
LFhlK
  0
XRECORD
  5
10000246
102
{ACAD_REACTORS
330
10000244
102
}
330
10000244
100
AcDbXrecord
1000
LFWpD
  0
XRECORD
  5
10000248
102
{ACAD_REACTORS
330
10000244
102
}
330
10000244
100
AcDbXrecord
1000
KFHC
  0
XRECORD
  5
1000024D
102
{ACAD_REACTORS
330
1000024A
102
}
330
1000024A
100
AcDbXrecord
 40
161.436562
  0
XRECORD
  5
1000024B
102
{ACAD_REACTORS
330
1000024A
102
}
330
1000024A
100
AcDbXrecord
1000
LFllK
  0
XRECORD
  5
1000024C
102
{ACAD_REACTORS
330
1000024A
102
}
330
1000024A
100
AcDbXrecord
1000
LFWpD
  0
XRECORD
  5
1000024E
102
{ACAD_REACTORS
330
1000024A
102
}
330
1000024A
100
AcDbXrecord
1000
KFHC
  0
XRECORD
  5
10000253
102
{ACAD_REACTORS
330
10000250
102
}
330
10000250
100
AcDbXrecord
 40
1.5875
  0
XRECORD
  5
10000251
102
{ACAD_REACTORS
330
10000250
102
}
330
10000250
100
AcDbXrecord
1000
LFplK
  0
XRECORD
  5
10000252
102
{ACAD_REACTORS
330
10000250
102
}
330
10000250
100
AcDbXrecord
1000
LFWpD
  0
XRECORD
  5
10000254
102
{ACAD_REACTORS
330
10000250
102
}
330
10000250
100
AcDbXrecord
1000
KFHC
  0
XRECORD
  5
10000257
102
{ACAD_REACTORS
330
10000256
102
}
330
10000256
100
AcDbXrecord
1000
LFtlK
  0
XRECORD
  5
10000258
102
{ACAD_REACTORS
330
10000256
102
}
330
10000256
100
AcDbXrecord
1000
KFHC
  0
XRECORD
  5
1000025B
102
{ACAD_REACTORS
330
1000025A
102
}
330
1000025A
100
AcDbXrecord
1000
LFxlK
  0
XRECORD
  5
1000025C
102
{ACAD_REACTORS
330
1000025A
102
}
330
1000025A
100
AcDbXrecord
1000
KFHC
  0
XRECORD
  5
10000261
102
{ACAD_REACTORS
330
1000025E
102
}
330
1000025E
100
AcDbXrecord
 40
233.33799999999
  0
XRECORD
  5
1000025F
102
{ACAD_REACTORS
330
1000025E
102
}
330
1000025E
100
AcDbXrecord
1000
LF1lK
  0
XRECORD
  5
10000260
102
{ACAD_REACTORS
330
1000025E
102
}
330
1000025E
100
AcDbXrecord
1000
LFWpD
  0
XRECORD
  5
10000262
102
{ACAD_REACTORS
330
1000025E
102
}
330
1000025E
100
AcDbXrecord
1000
KFHC
  0
XRECORD
  5
10000265
102
{ACAD_REACTORS
330
10000264
102
}
330
10000264
100
AcDbXrecord
1000
LF5lK
  0
XRECORD
  5
10000266
102
{ACAD_REACTORS
330
10000264
102
}
330
10000264
100
AcDbXrecord
1000
KFHC
  0
XRECORD
  5
10000269
102
{ACAD_REACTORS
330
10000268
102
}
330
10000268
100
AcDbXrecord
1000
LF9lK
  0
XRECORD
  5
1000026A
102
{ACAD_REACTORS
330
10000268
102
}
330
10000268
100
AcDbXrecord
1000
KFHC
  0
XRECORD
  5
1000026F
102
{ACAD_REACTORS
330
1000026C
102
}
330
1000026C
100
AcDbXrecord
 40
1.5875
  0
XRECORD
  5
1000026D
102
{ACAD_REACTORS
330
1000026C
102
}
330
1000026C
100
AcDbXrecord
1000
LFBmK
  0
XRECORD
  5
1000026E
102
{ACAD_REACTORS
330
1000026C
102
}
330
1000026C
100
AcDbXrecord
1000
LFWpD
  0
XRECORD
  5
10000270
102
{ACAD_REACTORS
330
1000026C
102
}
330
1000026C
100
AcDbXrecord
1000
KFHC
  0
XRECORD
  5
10000275
102
{ACAD_REACTORS
330
10000272
102
}
330
10000272
100
AcDbXrecord
 40
161.436562
  0
XRECORD
  5
10000273
102
{ACAD_REACTORS
330
10000272
102
}
330
10000272
100
AcDbXrecord
1000
LFFmK
  0
XRECORD
  5
10000274
102
{ACAD_REACTORS
330
10000272
102
}
330
10000272
100
AcDbXrecord
1000
LFWpD
  0
XRECORD
  5
10000276
102
{ACAD_REACTORS
330
10000272
102
}
330
10000272
100
AcDbXrecord
1000
KFHC
  0
XRECORD
  5
1000027B
102
{ACAD_REACTORS
330
10000278
102
}
330
10000278
100
AcDbXrecord
 40
1.5875
  0
XRECORD
  5
10000279
102
{ACAD_REACTORS
330
10000278
102
}
330
10000278
100
AcDbXrecord
1000
LFJmK
  0
XRECORD
  5
1000027A
102
{ACAD_REACTORS
330
10000278
102
}
330
10000278
100
AcDbXrecord
1000
LFWpD
  0
XRECORD
  5
1000027C
102
{ACAD_REACTORS
330
10000278
102
}
330
10000278
100
AcDbXrecord
1000
KFHC
  0
XRECORD
  5
1000027F
102
{ACAD_REACTORS
330
1000027E
102
}
330
1000027E
100
AcDbXrecord
1000
LFNmK
  0
XRECORD
  5
10000280
102
{ACAD_REACTORS
330
1000027E
102
}
330
1000027E
100
AcDbXrecord
1000
KFHC
  0
XRECORD
  5
10000283
102
{ACAD_REACTORS
330
10000282
102
}
330
10000282
100
AcDbXrecord
1000
LFRmK
  0
XRECORD
  5
10000284
102
{ACAD_REACTORS
330
10000282
102
}
330
10000282
100
AcDbXrecord
1000
KFHC
  0
XRECORD
  5
10000289
102
{ACAD_REACTORS
330
10000286
102
}
330
10000286
100
AcDbXrecord
 40
233.33799999999
  0
XRECORD
  5
10000287
102
{ACAD_REACTORS
330
10000286
102
}
330
10000286
100
AcDbXrecord
1000
LFVmK
  0
XRECORD
  5
10000288
102
{ACAD_REACTORS
330
10000286
102
}
330
10000286
100
AcDbXrecord
1000
LFWpD
  0
XRECORD
  5
1000028A
102
{ACAD_REACTORS
330
10000286
102
}
330
10000286
100
AcDbXrecord
1000
KFHC
  0
XRECORD
  5
1000028D
102
{ACAD_REACTORS
330
1000028C
102
}
330
1000028C
100
AcDbXrecord
1000
LFZmK
  0
XRECORD
  5
1000028E
102
{ACAD_REACTORS
330
1000028C
102
}
330
1000028C
100
AcDbXrecord
1000
KFHC
  0
XRECORD
  5
10000291
102
{ACAD_REACTORS
330
10000290
102
}
330
10000290
100
AcDbXrecord
1000
LFdmK
  0
XRECORD
  5
10000292
102
{ACAD_REACTORS
330
10000290
102
}
330
10000290
100
AcDbXrecord
1000
KFHC
  0
XRECORD
  5
10000297
102
{ACAD_REACTORS
330
10000294
102
}
330
10000294
100
AcDbXrecord
 40
1.5875
  0
XRECORD
  5
10000295
102
{ACAD_REACTORS
330
10000294
102
}
330
10000294
100
AcDbXrecord
1000
LFhmK
  0
XRECORD
  5
10000296
102
{ACAD_REACTORS
330
10000294
102
}
330
10000294
100
AcDbXrecord
1000
LFWpD
  0
XRECORD
  5
10000298
102
{ACAD_REACTORS
330
10000294
102
}
330
10000294
100
AcDbXrecord
1000
KFHC
  0
XRECORD
  5
1000029D
102
{ACAD_REACTORS
330
1000029A
102
}
330
1000029A
100
AcDbXrecord
 40
161.436562
  0
XRECORD
  5
1000029B
102
{ACAD_REACTORS
330
1000029A
102
}
330
1000029A
100
AcDbXrecord
1000
LFlmK
  0
XRECORD
  5
1000029C
102
{ACAD_REACTORS
330
1000029A
102
}
330
1000029A
100
AcDbXrecord
1000
LFWpD
  0
XRECORD
  5
1000029E
102
{ACAD_REACTORS
330
1000029A
102
}
330
1000029A
100
AcDbXrecord
1000
KFHC
  0
XRECORD
  5
100002A3
102
{ACAD_REACTORS
330
100002A0
102
}
330
100002A0
100
AcDbXrecord
 40
1.5875
  0
XRECORD
  5
100002A1
102
{ACAD_REACTORS
330
100002A0
102
}
330
100002A0
100
AcDbXrecord
1000
LFpmK
  0
XRECORD
  5
100002A2
102
{ACAD_REACTORS
330
100002A0
102
}
330
100002A0
100
AcDbXrecord
1000
LFWpD
  0
XRECORD
  5
100002A4
102
{ACAD_REACTORS
330
100002A0
102
}
330
100002A0
100
AcDbXrecord
1000
KFHC
  0
XRECORD
  5
100002A7
102
{ACAD_REACTORS
330
100002A6
102
}
330
100002A6
100
AcDbXrecord
1000
LFtmK
  0
XRECORD
  5
100002A8
102
{ACAD_REACTORS
330
100002A6
102
}
330
100002A6
100
AcDbXrecord
1000
KFHC
  0
XRECORD
  5
100002AB
102
{ACAD_REACTORS
330
100002AA
102
}
330
100002AA
100
AcDbXrecord
1000
LFxmK
  0
XRECORD
  5
100002AC
102
{ACAD_REACTORS
330
100002AA
102
}
330
100002AA
100
AcDbXrecord
1000
KFHC
  0
XRECORD
  5
100002B1
102
{ACAD_REACTORS
330
100002AE
102
}
330
100002AE
100
AcDbXrecord
 40
233.33799999999
  0
XRECORD
  5
100002AF
102
{ACAD_REACTORS
330
100002AE
102
}
330
100002AE
100
AcDbXrecord
1000
LF1mK
  0
XRECORD
  5
100002B0
102
{ACAD_REACTORS
330
100002AE
102
}
330
100002AE
100
AcDbXrecord
1000
LFWpD
  0
XRECORD
  5
100002B2
102
{ACAD_REACTORS
330
100002AE
102
}
330
100002AE
100
AcDbXrecord
1000
KFHC
  0
XRECORD
  5
100002B5
102
{ACAD_REACTORS
330
100002B4
102
}
330
100002B4
100
AcDbXrecord
1000
LF5mK
  0
XRECORD
  5
100002B6
102
{ACAD_REACTORS
330
100002B4
102
}
330
100002B4
100
AcDbXrecord
1000
KFHC
  0
XRECORD
  5
100002B9
102
{ACAD_REACTORS
330
100002B8
102
}
330
100002B8
100
AcDbXrecord
1000
LF9mK
  0
XRECORD
  5
100002BA
102
{ACAD_REACTORS
330
100002B8
102
}
330
100002B8
100
AcDbXrecord
1000
KFHC
  0
XRECORD
  5
100002BF
102
{ACAD_REACTORS
330
100002BC
102
}
330
100002BC
100
AcDbXrecord
 40
1.5875
  0
XRECORD
  5
100002BD
102
{ACAD_REACTORS
330
100002BC
102
}
330
100002BC
100
AcDbXrecord
1000
LFBnK
  0
XRECORD
  5
100002BE
102
{ACAD_REACTORS
330
100002BC
102
}
330
100002BC
100
AcDbXrecord
1000
LFWpD
  0
XRECORD
  5
100002C0
102
{ACAD_REACTORS
330
100002BC
102
}
330
100002BC
100
AcDbXrecord
1000
KFHC
  0
XRECORD
  5
100002C5
102
{ACAD_REACTORS
330
100002C2
102
}
330
100002C2
100
AcDbXrecord
 40
161.436562
  0
XRECORD
  5
100002C3
102
{ACAD_REACTORS
330
100002C2
102
}
330
100002C2
100
AcDbXrecord
1000
LFFnK
  0
XRECORD
  5
100002C4
102
{ACAD_REACTORS
330
100002C2
102
}
330
100002C2
100
AcDbXrecord
1000
LFWpD
  0
XRECORD
  5
100002C6
102
{ACAD_REACTORS
330
100002C2
102
}
330
100002C2
100
AcDbXrecord
1000
KFHC
  0
XRECORD
  5
100002CB
102
{ACAD_REACTORS
330
100002C8
102
}
330
100002C8
100
AcDbXrecord
 40
1.5875
  0
XRECORD
  5
100002C9
102
{ACAD_REACTORS
330
100002C8
102
}
330
100002C8
100
AcDbXrecord
1000
LFJnK
  0
XRECORD
  5
100002CA
102
{ACAD_REACTORS
330
100002C8
102
}
330
100002C8
100
AcDbXrecord
1000
LFWpD
  0
XRECORD
  5
100002CC
102
{ACAD_REACTORS
330
100002C8
102
}
330
100002C8
100
AcDbXrecord
1000
KFHC
  0
XRECORD
  5
100002CF
102
{ACAD_REACTORS
330
100002CE
102
}
330
100002CE
100
AcDbXrecord
1000
LFNnK
  0
XRECORD
  5
100002D0
102
{ACAD_REACTORS
330
100002CE
102
}
330
100002CE
100
AcDbXrecord
1000
KFHC
  0
XRECORD
  5
100002D3
102
{ACAD_REACTORS
330
100002D2
102
}
330
100002D2
100
AcDbXrecord
1000
LFRnK
  0
XRECORD
  5
100002D4
102
{ACAD_REACTORS
330
100002D2
102
}
330
100002D2
100
AcDbXrecord
1000
KFHC
  0
XRECORD
  5
100002D9
102
{ACAD_REACTORS
330
100002D6
102
}
330
100002D6
100
AcDbXrecord
 40
233.33799999999
  0
XRECORD
  5
100002D7
102
{ACAD_REACTORS
330
100002D6
102
}
330
100002D6
100
AcDbXrecord
1000
LFVnK
  0
XRECORD
  5
100002D8
102
{ACAD_REACTORS
330
100002D6
102
}
330
100002D6
100
AcDbXrecord
1000
LFWpD
  0
XRECORD
  5
100002DA
102
{ACAD_REACTORS
330
100002D6
102
}
330
100002D6
100
AcDbXrecord
1000
KFHC
  0
XRECORD
  5
100002DD
102
{ACAD_REACTORS
330
100002DC
102
}
330
100002DC
100
AcDbXrecord
1000
LFZnK
  0
XRECORD
  5
100002DE
102
{ACAD_REACTORS
330
100002DC
102
}
330
100002DC
100
AcDbXrecord
1000
KFHC
  0
XRECORD
  5
100002E1
102
{ACAD_REACTORS
330
100002E0
102
}
330
100002E0
100
AcDbXrecord
1000
LFdnK
  0
XRECORD
  5
100002E2
102
{ACAD_REACTORS
330
100002E0
102
}
330
100002E0
100
AcDbXrecord
1000
KFHC
  0
XRECORD
  5
100002E7
102
{ACAD_REACTORS
330
100002E4
102
}
330
100002E4
100
AcDbXrecord
 40
1.5875
  0
XRECORD
  5
100002E5
102
{ACAD_REACTORS
330
100002E4
102
}
330
100002E4
100
AcDbXrecord
1000
LFhnK
  0
XRECORD
  5
100002E6
102
{ACAD_REACTORS
330
100002E4
102
}
330
100002E4
100
AcDbXrecord
1000
LFWpD
  0
XRECORD
  5
100002E8
102
{ACAD_REACTORS
330
100002E4
102
}
330
100002E4
100
AcDbXrecord
1000
KFHC
  0
XRECORD
  5
100002ED
102
{ACAD_REACTORS
330
100002EA
102
}
330
100002EA
100
AcDbXrecord
 40
161.436562
  0
XRECORD
  5
100002EB
102
{ACAD_REACTORS
330
100002EA
102
}
330
100002EA
100
AcDbXrecord
1000
LFlnK
  0
XRECORD
  5
100002EC
102
{ACAD_REACTORS
330
100002EA
102
}
330
100002EA
100
AcDbXrecord
1000
LFWpD
  0
XRECORD
  5
100002EE
102
{ACAD_REACTORS
330
100002EA
102
}
330
100002EA
100
AcDbXrecord
1000
KFHC
  0
XRECORD
  5
100002F3
102
{ACAD_REACTORS
330
100002F0
102
}
330
100002F0
100
AcDbXrecord
 40
1.5875
  0
XRECORD
  5
100002F1
102
{ACAD_REACTORS
330
100002F0
102
}
330
100002F0
100
AcDbXrecord
1000
LFpnK
  0
XRECORD
  5
100002F2
102
{ACAD_REACTORS
330
100002F0
102
}
330
100002F0
100
AcDbXrecord
1000
LFWpD
  0
XRECORD
  5
100002F4
102
{ACAD_REACTORS
330
100002F0
102
}
330
100002F0
100
AcDbXrecord
1000
KFHC
  0
XRECORD
  5
100002F7
102
{ACAD_REACTORS
330
100002F6
102
}
330
100002F6
100
AcDbXrecord
1000
LFtnK
  0
XRECORD
  5
100002F8
102
{ACAD_REACTORS
330
100002F6
102
}
330
100002F6
100
AcDbXrecord
1000
KFHC
  0
XRECORD
  5
100002FB
102
{ACAD_REACTORS
330
100002FA
102
}
330
100002FA
100
AcDbXrecord
1000
LFxnK
  0
XRECORD
  5
100002FC
102
{ACAD_REACTORS
330
100002FA
102
}
330
100002FA
100
AcDbXrecord
1000
KFHC
  0
XRECORD
  5
10000301
102
{ACAD_REACTORS
330
100002FE
102
}
330
100002FE
100
AcDbXrecord
 40
233.33799999999
  0
XRECORD
  5
100002FF
102
{ACAD_REACTORS
330
100002FE
102
}
330
100002FE
100
AcDbXrecord
1000
LF1nK
  0
XRECORD
  5
10000300
102
{ACAD_REACTORS
330
100002FE
102
}
330
100002FE
100
AcDbXrecord
1000
LFWpD
  0
XRECORD
  5
10000302
102
{ACAD_REACTORS
330
100002FE
102
}
330
100002FE
100
AcDbXrecord
1000
KFHC
  0
XRECORD
  5
10000305
102
{ACAD_REACTORS
330
10000304
102
}
330
10000304
100
AcDbXrecord
1000
LF5nK
  0
XRECORD
  5
10000306
102
{ACAD_REACTORS
330
10000304
102
}
330
10000304
100
AcDbXrecord
1000
KFHC
  0
XRECORD
  5
10000309
102
{ACAD_REACTORS
330
10000308
102
}
330
10000308
100
AcDbXrecord
1000
LF9nK
  0
XRECORD
  5
1000030A
102
{ACAD_REACTORS
330
10000308
102
}
330
10000308
100
AcDbXrecord
1000
KFHC
  0
XRECORD
  5
1000030F
102
{ACAD_REACTORS
330
1000030C
102
}
330
1000030C
100
AcDbXrecord
 40
1.5875
  0
XRECORD
  5
1000030D
102
{ACAD_REACTORS
330
1000030C
102
}
330
1000030C
100
AcDbXrecord
1000
LFBoK
  0
XRECORD
  5
1000030E
102
{ACAD_REACTORS
330
1000030C
102
}
330
1000030C
100
AcDbXrecord
1000
LFWpD
  0
XRECORD
  5
10000310
102
{ACAD_REACTORS
330
1000030C
102
}
330
1000030C
100
AcDbXrecord
1000
KFHC
  0
XRECORD
  5
10000315
102
{ACAD_REACTORS
330
10000312
102
}
330
10000312
100
AcDbXrecord
 40
161.436562
  0
XRECORD
  5
10000313
102
{ACAD_REACTORS
330
10000312
102
}
330
10000312
100
AcDbXrecord
1000
LFFoK
  0
XRECORD
  5
10000314
102
{ACAD_REACTORS
330
10000312
102
}
330
10000312
100
AcDbXrecord
1000
LFWpD
  0
XRECORD
  5
10000316
102
{ACAD_REACTORS
330
10000312
102
}
330
10000312
100
AcDbXrecord
1000
KFHC
  0
XRECORD
  5
1000031B
102
{ACAD_REACTORS
330
10000318
102
}
330
10000318
100
AcDbXrecord
 40
1.5875
  0
XRECORD
  5
10000319
102
{ACAD_REACTORS
330
10000318
102
}
330
10000318
100
AcDbXrecord
1000
LFJoK
  0
XRECORD
  5
1000031A
102
{ACAD_REACTORS
330
10000318
102
}
330
10000318
100
AcDbXrecord
1000
LFWpD
  0
XRECORD
  5
1000031C
102
{ACAD_REACTORS
330
10000318
102
}
330
10000318
100
AcDbXrecord
1000
KFHC
  0
XRECORD
  5
1000031F
102
{ACAD_REACTORS
330
1000031E
102
}
330
1000031E
100
AcDbXrecord
1000
LFNoK
  0
XRECORD
  5
10000320
102
{ACAD_REACTORS
330
1000031E
102
}
330
1000031E
100
AcDbXrecord
1000
KFHC
  0
XRECORD
  5
10000323
102
{ACAD_REACTORS
330
10000322
102
}
330
10000322
100
AcDbXrecord
1000
LFRoK
  0
XRECORD
  5
10000324
102
{ACAD_REACTORS
330
10000322
102
}
330
10000322
100
AcDbXrecord
1000
KFHC
  0
XRECORD
  5
10000329
102
{ACAD_REACTORS
330
10000326
102
}
330
10000326
100
AcDbXrecord
 40
233.33799999999
  0
XRECORD
  5
10000327
102
{ACAD_REACTORS
330
10000326
102
}
330
10000326
100
AcDbXrecord
1000
LFVoK
  0
XRECORD
  5
10000328
102
{ACAD_REACTORS
330
10000326
102
}
330
10000326
100
AcDbXrecord
1000
LFWpD
  0
XRECORD
  5
1000032A
102
{ACAD_REACTORS
330
10000326
102
}
330
10000326
100
AcDbXrecord
1000
KFHC
  0
XRECORD
  5
1000032D
102
{ACAD_REACTORS
330
1000032C
102
}
330
1000032C
100
AcDbXrecord
1000
LFZoK
  0
XRECORD
  5
1000032E
102
{ACAD_REACTORS
330
1000032C
102
}
330
1000032C
100
AcDbXrecord
1000
KFHC
  0
XRECORD
  5
10000331
102
{ACAD_REACTORS
330
10000330
102
}
330
10000330
100
AcDbXrecord
1000
LFdoK
  0
XRECORD
  5
10000332
102
{ACAD_REACTORS
330
10000330
102
}
330
10000330
100
AcDbXrecord
1000
KFHC
  0
XRECORD
  5
10000337
102
{ACAD_REACTORS
330
10000334
102
}
330
10000334
100
AcDbXrecord
 40
1.5875
  0
XRECORD
  5
10000335
102
{ACAD_REACTORS
330
10000334
102
}
330
10000334
100
AcDbXrecord
1000
LFhoK
  0
XRECORD
  5
10000336
102
{ACAD_REACTORS
330
10000334
102
}
330
10000334
100
AcDbXrecord
1000
LFWpD
  0
XRECORD
  5
10000338
102
{ACAD_REACTORS
330
10000334
102
}
330
10000334
100
AcDbXrecord
1000
KFHC
  0
XRECORD
  5
1000033D
102
{ACAD_REACTORS
330
1000033A
102
}
330
1000033A
100
AcDbXrecord
 40
161.436562
  0
XRECORD
  5
1000033B
102
{ACAD_REACTORS
330
1000033A
102
}
330
1000033A
100
AcDbXrecord
1000
LFloK
  0
XRECORD
  5
1000033C
102
{ACAD_REACTORS
330
1000033A
102
}
330
1000033A
100
AcDbXrecord
1000
LFWpD
  0
XRECORD
  5
1000033E
102
{ACAD_REACTORS
330
1000033A
102
}
330
1000033A
100
AcDbXrecord
1000
KFHC
  0
XRECORD
  5
10000343
102
{ACAD_REACTORS
330
10000340
102
}
330
10000340
100
AcDbXrecord
 40
1.5875
  0
XRECORD
  5
10000341
102
{ACAD_REACTORS
330
10000340
102
}
330
10000340
100
AcDbXrecord
1000
LFpoK
  0
XRECORD
  5
10000342
102
{ACAD_REACTORS
330
10000340
102
}
330
10000340
100
AcDbXrecord
1000
LFWpD
  0
XRECORD
  5
10000344
102
{ACAD_REACTORS
330
10000340
102
}
330
10000340
100
AcDbXrecord
1000
KFHC
  0
MATERIAL
  5
45
102
{ACAD_REACTORS
330
43
102
}
102
{ACAD_XDICTIONARY
360
1000037A
102
}
330
43
100
AcDbMaterial
  1
BYBLOCK
  0
MATERIAL
  5
44
102
{ACAD_REACTORS
330
43
102
}
102
{ACAD_XDICTIONARY
360
10000378
102
}
330
43
100
AcDbMaterial
  1
BYLAYER
  0
MATERIAL
  5
46
102
{ACAD_REACTORS
330
43
102
}
102
{ACAD_XDICTIONARY
360
1000037C
102
}
330
43
100
AcDbMaterial
  1
GLOBAL
  0
ACAD_PROXY_OBJECT
  5
5C
102
{ACAD_REACTORS
330
5B
102
}
330
5B
100
AcDbProxyObject
 90
      499
 91
      505
 93
      610
310
40901902A4063FBFFFFFE0000000000000020400000000000020404214DD185B99185C990000000000000104090141901A00000000000004100000000000000041025764000000000000039000
340
14
340
0
340
11
340
0
 94
        0
1001
ACAD_MLEADERVER
1070
     2
  0
MLINESTYLE
  5
18
102
{ACAD_REACTORS
330
17
102
}
330
17
100
AcDbMlineStyle
  2
Standard
 70
     0
  3

 62
   256
 51
90.0
 52
90.0
 71
     2
 49
0.5
 62
   256
  6
BYLAYER
 49
-0.5
 62
   256
  6
BYLAYER
  0
ACAD_PROXY_OBJECT
  5
10000023
102
{ACAD_REACTORS
330
47
102
}
330
47
100
AcDbProxyObject
 90
      499
 91
      503
 93
      121
310
9053130303A310000000000001650100
  0
ACAD_PROXY_OBJECT
  5
1000001D
102
{ACAD_REACTORS
330
47
102
}
330
47
100
AcDbProxyObject
 90
      499
 91
      503
 93
      113
310
90431303A310000000000000910100
  0
ACAD_PROXY_OBJECT
  5
1000001E
102
{ACAD_REACTORS
330
47
102
}
330
47
100
AcDbProxyObject
 90
      499
 91
      503
 93
      113
310
90431323A310000000000000A10100
  0
ACAD_PROXY_OBJECT
  5
1000001F
102
{ACAD_REACTORS
330
47
102
}
330
47
100
AcDbProxyObject
 90
      499
 91
      503
 93
      113
310
90431363A310000000000000C10100
  0
ACAD_PROXY_OBJECT
  5
10000006
102
{ACAD_REACTORS
330
47
102
}
330
47
100
AcDbProxyObject
 90
      499
 91
      503
 93
       41
310
903313A31500
  0
ACAD_PROXY_OBJECT
  5
1000000D
102
{ACAD_REACTORS
330
47
102
}
330
47
100
AcDbProxyObject
 90
      499
 91
      503
 93
      113
310
904313A31304000000000000244000
  0
ACAD_PROXY_OBJECT
  5
10000016
102
{ACAD_REACTORS
330
47
102
}
330
47
100
AcDbProxyObject
 90
      499
 91
      503
 93
      121
310
905313A3130304000000000000594000
  0
ACAD_PROXY_OBJECT
  5
1000000E
102
{ACAD_REACTORS
330
47
102
}
330
47
100
AcDbProxyObject
 90
      499
 91
      503
 93
      113
310
904313A31324000000000000284000
  0
ACAD_PROXY_OBJECT
  5
1000000F
102
{ACAD_REACTORS
330
47
102
}
330
47
100
AcDbProxyObject
 90
      499
 91
      503
 93
      113
310
904313A31364000000000000304000
  0
ACAD_PROXY_OBJECT
  5
10000007
102
{ACAD_REACTORS
330
47
102
}
330
47
100
AcDbProxyObject
 90
      499
 91
      503
 93
      105
310
903313A324000000000000004000
  0
ACAD_PROXY_OBJECT
  5
10000010
102
{ACAD_REACTORS
330
47
102
}
330
47
100
AcDbProxyObject
 90
      499
 91
      503
 93
      113
310
904313A32304000000000000344000
  0
ACAD_PROXY_OBJECT
  5
10000011
102
{ACAD_REACTORS
330
47
102
}
330
47
100
AcDbProxyObject
 90
      499
 91
      503
 93
      113
310
904313A32354000000000000394000
  0
ACAD_PROXY_OBJECT
  5
10000008
102
{ACAD_REACTORS
330
47
102
}
330
47
100
AcDbProxyObject
 90
      499
 91
      503
 93
      105
310
903313A334000000000000084000
  0
ACAD_PROXY_OBJECT
  5
10000012
102
{ACAD_REACTORS
330
47
102
}
330
47
100
AcDbProxyObject
 90
      499
 91
      503
 93
      113
310
904313A33324000000000000404000
  0
ACAD_PROXY_OBJECT
  5
10000009
102
{ACAD_REACTORS
330
47
102
}
330
47
100
AcDbProxyObject
 90
      499
 91
      503
 93
      105
310
903313A344000000000000104000
  0
ACAD_PROXY_OBJECT
  5
10000013
102
{ACAD_REACTORS
330
47
102
}
330
47
100
AcDbProxyObject
 90
      499
 91
      503
 93
      113
310
904313A34304000000000000444000
  0
ACAD_PROXY_OBJECT
  5
1000000A
102
{ACAD_REACTORS
330
47
102
}
330
47
100
AcDbProxyObject
 90
      499
 91
      503
 93
      105
310
903313A354000000000000144000
  0
ACAD_PROXY_OBJECT
  5
10000014
102
{ACAD_REACTORS
330
47
102
}
330
47
100
AcDbProxyObject
 90
      499
 91
      503
 93
      113
310
904313A35304000000000000494000
  0
ACAD_PROXY_OBJECT
  5
1000000B
102
{ACAD_REACTORS
330
47
102
}
330
47
100
AcDbProxyObject
 90
      499
 91
      503
 93
      105
310
903313A364000000000000184000
  0
ACAD_PROXY_OBJECT
  5
1000000C
102
{ACAD_REACTORS
330
47
102
}
330
47
100
AcDbProxyObject
 90
      499
 91
      503
 93
      105
310
903313A384000000000000204000
  0
ACAD_PROXY_OBJECT
  5
10000015
102
{ACAD_REACTORS
330
47
102
}
330
47
100
AcDbProxyObject
 90
      499
 91
      503
 93
      113
310
904313A38304000000000000544000
  0
ACAD_PROXY_OBJECT
  5
10000020
102
{ACAD_REACTORS
330
47
102
}
330
47
100
AcDbProxyObject
 90
      499
 91
      503
 93
      113
310
90432303A310000000000000D10100
  0
ACAD_PROXY_OBJECT
  5
10000017
102
{ACAD_REACTORS
330
47
102
}
330
47
100
AcDbProxyObject
 90
      499
 91
      503
 93
      105
310
903323A310000000000000010100
  0
ACAD_PROXY_OBJECT
  5
10000021
102
{ACAD_REACTORS
330
47
102
}
330
47
100
AcDbProxyObject
 90
      499
 91
      503
 93
      113
310
90433323A310000000000001010100
  0
ACAD_PROXY_OBJECT
  5
10000018
102
{ACAD_REACTORS
330
47
102
}
330
47
100
AcDbProxyObject
 90
      499
 91
      503
 93
      105
310
903333A310000000000000210100
  0
ACAD_PROXY_OBJECT
  5
10000019
102
{ACAD_REACTORS
330
47
102
}
330
47
100
AcDbProxyObject
 90
      499
 91
      503
 93
      105
310
903343A310000000000000410100
  0
ACAD_PROXY_OBJECT
  5
10000022
102
{ACAD_REACTORS
330
47
102
}
330
47
100
AcDbProxyObject
 90
      499
 91
      503
 93
      113
310
90435303A310000000000001250100
  0
ACAD_PROXY_OBJECT
  5
1000001A
102
{ACAD_REACTORS
330
47
102
}
330
47
100
AcDbProxyObject
 90
      499
 91
      503
 93
      105
310
903353A310000000000000510100
  0
ACAD_PROXY_OBJECT
  5
1000001B
102
{ACAD_REACTORS
330
47
102
}
330
47
100
AcDbProxyObject
 90
      499
 91
      503
 93
      105
310
903363A310000000000000610100
  0
ACAD_PROXY_OBJECT
  5
1000001C
102
{ACAD_REACTORS
330
47
102
}
330
47
100
AcDbProxyObject
 90
      499
 91
      503
 93
      105
310
903383A310000000000000810100
  0
ACAD_PROXY_OBJECT
  5
2F
102
{ACAD_REACTORS
330
2A
102
}
330
2A
100
AcDbProxyObject
 90
      499
 91
      501
 93
      436
310
42CC9915DA5C99599C985B595049028333333333333E33F0000000000000F90107901411070040501600405405064090741402480A0340
1001
ACAD
1000
AcDbSavedByObjectVersion
1070
     0
  0
ACAD_PROXY_OBJECT
  5
32
102
{ACAD_REACTORS
330
2A
102
}
330
2A
100
AcDbProxyObject
 90
      499
 91
      501
 93
      388
310
4150985CDA58D07406404333333333333E33F0000000000000F90107A41107004050150841D405064090741402480A0350
1001
ACAD
1000
AcDbSavedByObjectVersion
1070
     0
  0
ACAD_PROXY_OBJECT
  5
36
102
{ACAD_REACTORS
330
2A
102
}
330
2A
100
AcDbProxyObject
 90
      499
 91
      501
 93
      428
310
42109C9A59DA1D195B90C409028333333333333E33F0000000000000F9010790141107004050150841D405064090741402480A029950
1001
ACAD
1000
AcDbSavedByObjectVersion
1070
     0
  0
ACAD_PROXY_OBJECT
  5
3A
102
{ACAD_REACTORS
330
2A
102
}
330
2A
100
AcDbProxyObject
 90
      499
 91
      501
 93
      452
310
42D0DBDB1BDC90DA185B99D95104090240C333333333333E33F0000000000000F90108901411070040501508421405064090741402480A0350
1001
ACAD
1000
AcDbSavedByObjectVersion
1070
     0
  0
ACAD_PROXY_OBJECT
  5
34
102
{ACAD_REACTORS
330
2A
102
}
330
2A
100
AcDbProxyObject
 90
      499
 91
      501
 93
      500
310
4290DBDB98D95C1D1D585B10940D028333333333333E33F0000000000000F90107902409070040501000000000018199010841D405064090740C02480A0340
1001
ACAD
1000
AcDbSavedByObjectVersion
1070
     0
  0
ACAD_PROXY_OBJECT
  5
35
102
{ACAD_REACTORS
330
2A
102
}
330
2A
100
AcDbProxyObject
 90
      499
 91
      501
 93
      412
310
40D11A5B50B409028333333333333E33F0000000000000F9010790141107004050150841D405064090741402480A02677FFFFFD0
1001
ACAD
1000
AcDbSavedByObjectVersion
1070
     0
  0
ACAD_PROXY_OBJECT
  5
3D
102
{ACAD_REACTORS
330
2A
102
}
330
2A
100
AcDbProxyObject
 90
      499
 91
      501
 93
      452
310
43115919D950DBDB1BDC93D999916409028333333333333E33F0000000000000F9010790141107004050150841D405064090741402480A0350
1001
ACAD
1000
AcDbSavedByObjectVersion
1070
     0
  0
ACAD_PROXY_OBJECT
  5
39
102
{ACAD_REACTORS
330
2A
102
}
330
2A
100
AcDbProxyObject
 90
      499
 91
      501
 93
      444
310
42D19858D95C185D1D195C9B90F409028333333333333E33F0000000000000F9010790141107004050150841D405064090741402480A0350
1001
ACAD
1000
AcDbSavedByObjectVersion
1070
     0
  0
ACAD_PROXY_OBJECT
  5
2B
102
{ACAD_REACTORS
330
2A
102
}
330
2A
100
AcDbProxyObject
 90
      499
 91
      501
 93
      380
310
41119B185D240901404333333333333E33F0000000000000F9010740A907004050150841D405064090741402480A1B50
1001
ACAD
1000
AcDbSavedByObjectVersion
1070
     0
  0
ACAD_PROXY_OBJECT
  5
2C
102
{ACAD_REACTORS
330
2A
102
}
330
2A
100
AcDbProxyObject
 90
      499
 91
      501
 93
      468
310
43519B185D15DA5D1A115919D95CD0140901404333333333333E33F0000000000000F90107409019070040501600405405064090741402480A1B50
1001
ACAD
1000
AcDbSavedByObjectVersion
1070
     0
  0
ACAD_PROXY_OBJECT
  5
2D
102
{ACAD_REACTORS
330
2A
102
}
330
2A
100
AcDbProxyObject
 90
      499
 91
      501
 93
      404
310
41D1DBDD5C985D5910240902404333333333333E33F0000000000000F9010740A9070040501641D405064090741402480A1B50
1001
ACAD
1000
AcDbSavedByObjectVersion
1070
     0
  0
ACAD_PROXY_OBJECT
  5
2E
102
{ACAD_REACTORS
330
2A
102
}
330
2A
100
AcDbProxyObject
 90
      499
 91
      501
 93
      492
310
4411DBDD5C985D5915DA5D1A115919D95CD0340902404333333333333E33F0000000000000F90107409019070040501600405405064090741402480A1B50
1001
ACAD
1000
AcDbSavedByObjectVersion
1070
     0
  0
ACAD_PROXY_OBJECT
  5
31
102
{ACAD_REACTORS
330
2A
102
}
330
2A
100
AcDbProxyObject
 90
      499
 91
      501
 93
      476
310
41921A5919195B90640502408333333333333E33F0000000000000F901079024090700405020000000000001110200405405064090740C02480A0340
1001
ACAD
1000
AcDbSavedByObjectVersion
1070
     0
  0
ACAD_PROXY_OBJECT
  5
3B
102
{ACAD_REACTORS
330
2A
102
}
330
2A
100
AcDbProxyObject
 90
      499
 91
      501
 93
      428
310
42529A5D1D195C93D999914409028333333333333E33F0000000000000F9010790141107004050150A41D405064090741402480A0350
1001
ACAD
1000
AcDbSavedByObjectVersion
1070
     0
  0
ACAD_PROXY_OBJECT
  5
38
102
{ACAD_REACTORS
330
2A
102
}
330
2A
100
AcDbProxyObject
 90
      499
 91
      501
 93
      444
310
42D31A5B995C185D1D195C9B90E409028333333333333E33F0000000000000F9010790141107004050750841D405064090741402483A0350
1001
ACAD
1000
AcDbSavedByObjectVersion
1070
     0
  0
ACAD_PROXY_OBJECT
  5
3C
102
{ACAD_REACTORS
330
2A
102
}
330
2A
100
AcDbProxyObject
 90
      499
 91
      501
 93
      444
310
42D3DD995C9A185B99D3D999915409028333333333333E33F0000000000000F9010790141107004050150941D405064090741402480A0350
1001
ACAD
1000
AcDbSavedByObjectVersion
1070
     0
  0
ACAD_PROXY_OBJECT
  5
33
102
{ACAD_REACTORS
330
2A
102
}
330
2A
100
AcDbProxyObject
 90
      499
 91
      501
 93
      428
310
425499585B1A5CDD1A58D08409038333333333333E33F0000000000000F9010740A907004050150800405405064090740C02480A1B40
1001
ACAD
1000
AcDbSavedByObjectVersion
1070
     0
  0
ACAD_PROXY_OBJECT
  5
42
102
{ACAD_REACTORS
330
2A
102
}
330
2A
100
AcDbProxyObject
 90
      499
 91
      501
 93
      420
310
4194DA1859195911B40902404333333333333E33F0000000000000F9010740A41107004050150800405405064090840C02480A0B40
1001
ACAD
1000
AcDbSavedByObjectVersion
1070
     0
  0
ACAD_PROXY_OBJECT
  5
41
102
{ACAD_REACTORS
330
2A
102
}
330
2A
100
AcDbProxyObject
 90
      499
 91
      501
 93
      516
310
4454DA18591959081DDA5D1A08195919D95CD1A40902404333333333333E33F0000000000000F901074090142907004050250800405405064090740C02480A0B40
1001
ACAD
1000
AcDbSavedByObjectVersion
1070
     0
  0
ACAD_PROXY_OBJECT
  5
3E
102
{ACAD_REACTORS
330
2A
102
}
330
2A
100
AcDbProxyObject
 90
      499
 91
      501
 93
      532
310
4394DA1859195CC81BD98811DC985E5174090240C333333333333E33F0000000000000F901079024090741D01000000000000111010841D405064090740C02480A0340
1001
ACAD
1000
AcDbSavedByObjectVersion
1070
     0
  0
ACAD_PROXY_OBJECT
  5
3F
102
{ACAD_REACTORS
330
2A
102
}
330
2A
100
AcDbProxyObject
 90
      499
 91
      501
 93
      476
310
41D4DAD95D18DA1E51840502408333333333333E33F0000000000000F901079024090741D01000000000000111010B41D405064090741802480A0340
1001
ACAD
1000
AcDbSavedByObjectVersion
1070
     0
  0
ACAD_PROXY_OBJECT
  5
37
102
{ACAD_REACTORS
330
2A
102
}
330
2A
100
AcDbProxyObject
 90
      499
 91
      501
 93
      412
310
41D51A1A58DAD95B90D409028333333333333E33F0000000000000F9010790141107004050150C41D405064090741402480A0350
1001
ACAD
1000
AcDbSavedByObjectVersion
1070
     0
  0
ACAD_PROXY_OBJECT
  5
30
102
{ACAD_REACTORS
330
2A
102
}
330
2A
100
AcDbProxyObject
 90
      499
 91
      501
 93
      420
310
4255DA5C99599C985B595059028333333333333E33F0000000000000F90107901411070040501600405405064090740C02480A0340
1001
ACAD
1000
AcDbSavedByObjectVersion
1070
     0
  0
ACAD_PROXY_OBJECT
  5
40
102
{ACAD_REACTORS
330
2A
102
}
330
2A
100
AcDbProxyObject
 90
      499
 91
      501
 93
      404
310
41560B54985E51940902404000000000000E03F0000000000000F9010740501907004050150841D405064090740C02480A1B40
1001
ACAD
1000
AcDbSavedByObjectVersion
1070
     0
  0
XRECORD
  5
10000351
102
{ACAD_REACTORS
330
10000347
102
}
330
10000347
100
AcDbXrecord
340
0
  0
XRECORD
  5
10000350
102
{ACAD_REACTORS
330
10000347
102
}
330
10000347
100
AcDbXrecord
 90
        0
  0
XRECORD
  5
10000367
102
{ACAD_REACTORS
330
10000347
102
}
330
10000347
100
AcDbXrecord
1000
DSTYLE
1002
{
1070
   340
340
11
1002
}
  0
XRECORD
  5
10000352
102
{ACAD_REACTORS
330
10000347
102
}
330
10000347
100
AcDbXrecord
  1
{313934b5-3071-e577-b974-357476626638}
  0
XRECORD
  5
1000034A
102
{ACAD_REACTORS
330
10000347
102
}
330
10000347
100
AcDbXrecord
  1

  0
XRECORD
  5
1000034F
102
{ACAD_REACTORS
330
10000347
102
}
330
10000347
100
AcDbXrecord
 90
        4
  0
XRECORD
  5
1000034C
102
{ACAD_REACTORS
330
10000347
102
}
330
10000347
100
AcDbXrecord
340
1A
  0
XRECORD
  5
1000034E
102
{ACAD_REACTORS
330
10000347
102
}
330
10000347
100
AcDbXrecord
 90
    10781
  0
XRECORD
  5
1000034D
102
{ACAD_REACTORS
330
10000347
102
}
330
10000347
100
AcDbXrecord
340
19
  0
XRECORD
  5
10000354
102
{ACAD_REACTORS
330
10000347
102
}
330
10000347
100
AcDbXrecord
 40
0.0
  0
XRECORD
  5
10000357
102
{ACAD_REACTORS
330
10000347
102
}
330
10000347
100
AcDbXrecord
340
0
  0
XRECORD
  5
1000035D
102
{ACAD_REACTORS
330
10000347
102
}
330
10000347
100
AcDbXrecord
 10
0.0
 20
0.0
 30
0.0
  0
XRECORD
  5
10000359
102
{ACAD_REACTORS
330
10000347
102
}
330
10000347
100
AcDbXrecord
 10
0.0
 20
0.0
 30
0.0
  0
XRECORD
  5
1000035C
102
{ACAD_REACTORS
330
10000347
102
}
330
10000347
100
AcDbXrecord
 10
0.0
 20
0.0
 30
0.0
  0
XRECORD
  5
1000035A
102
{ACAD_REACTORS
330
10000347
102
}
330
10000347
100
AcDbXrecord
 10
0.0
 20
0.0
 30
0.0
  0
XRECORD
  5
1000035B
102
{ACAD_REACTORS
330
10000347
102
}
330
10000347
100
AcDbXrecord
 10
0.0
 20
0.0
 30
0.0
  0
XRECORD
  5
10000358
102
{ACAD_REACTORS
330
10000347
102
}
330
10000347
100
AcDbXrecord
 10
0.0
 20
0.0
 30
0.0
  0
XRECORD
  5
10000355
102
{ACAD_REACTORS
330
10000347
102
}
330
10000347
100
AcDbXrecord
340
0
  0
XRECORD
  5
10000356
102
{ACAD_REACTORS
330
10000347
102
}
330
10000347
100
AcDbXrecord
 70
     0
  0
XRECORD
  5
1000034B
102
{ACAD_REACTORS
330
10000347
102
}
330
10000347
100
AcDbXrecord
  1

  0
XRECORD
  5
10000348
102
{ACAD_REACTORS
330
10000347
102
}
330
10000347
100
AcDbXrecord
 90
        1
  0
XRECORD
  5
10000349
102
{ACAD_REACTORS
330
10000347
102
}
330
10000347
100
AcDbXrecord
 90
       70
  0
XRECORD
  5
10000360
102
{ACAD_REACTORS
330
10000347
102
}
330
10000347
100
AcDbXrecord
340
0
  0
XRECORD
  5
10000366
102
{ACAD_REACTORS
330
10000347
102
}
330
10000347
100
AcDbXrecord
 10
0.0
 20
0.0
 30
0.0
  0
XRECORD
  5
10000362
102
{ACAD_REACTORS
330
10000347
102
}
330
10000347
100
AcDbXrecord
 10
0.0
 20
0.0
 30
0.0
  0
XRECORD
  5
10000365
102
{ACAD_REACTORS
330
10000347
102
}
330
10000347
100
AcDbXrecord
 10
0.0
 20
0.0
 30
0.0
  0
XRECORD
  5
10000363
102
{ACAD_REACTORS
330
10000347
102
}
330
10000347
100
AcDbXrecord
 10
0.0
 20
0.0
 30
0.0
  0
XRECORD
  5
10000364
102
{ACAD_REACTORS
330
10000347
102
}
330
10000347
100
AcDbXrecord
 10
0.0
 20
0.0
 30
0.0
  0
XRECORD
  5
10000361
102
{ACAD_REACTORS
330
10000347
102
}
330
10000347
100
AcDbXrecord
 10
0.0
 20
0.0
 30
0.0
  0
XRECORD
  5
1000035E
102
{ACAD_REACTORS
330
10000347
102
}
330
10000347
100
AcDbXrecord
340
0
  0
XRECORD
  5
1000035F
102
{ACAD_REACTORS
330
10000347
102
}
330
10000347
100
AcDbXrecord
 70
     0
  0
XRECORD
  5
10000353
102
{ACAD_REACTORS
330
10000347
102
}
330
10000347
100
AcDbXrecord
  1
{FAEB1C32-E019-11D5-929B-00C0DF256EC4}
  0
DICTIONARYVAR
  5
10000376
102
{ACAD_REACTORS
330
10000368
102
}
330
10000368
100
DictionaryVariables
280
     0
  1
1:1
  0
DICTIONARYVAR
  5
1000036F
102
{ACAD_REACTORS
330
10000368
102
}
330
10000368
100
DictionaryVariables
280
     0
  1
3.500000
  0
DICTIONARYVAR
  5
10000370
102
{ACAD_REACTORS
330
10000368
102
}
330
10000368
100
DictionaryVariables
280
     0
  1
acadiso.lin
  0
DICTIONARYVAR
  5
1000036A
102
{ACAD_REACTORS
330
10000368
102
}
330
10000368
100
DictionaryVariables
280
     0
  1
Standard
  0
DICTIONARYVAR
  5
10000369
102
{ACAD_REACTORS
330
10000368
102
}
330
10000368
100
DictionaryVariables
280
     0
  1
Standard
  0
DICTIONARYVAR
  5
10000371
102
{ACAD_REACTORS
330
10000368
102
}
330
10000368
100
DictionaryVariables
280
     0
  1
2
  0
DICTIONARYVAR
  5
10000372
102
{ACAD_REACTORS
330
10000368
102
}
330
10000368
100
DictionaryVariables
280
     0
  1
1
  0
DICTIONARYVAR
  5
10000377
102
{ACAD_REACTORS
330
10000368
102
}
330
10000368
100
DictionaryVariables
280
     0
  1
1
  0
DICTIONARYVAR
  5
1000036C
102
{ACAD_REACTORS
330
10000368
102
}
330
10000368
100
DictionaryVariables
280
     0
  1
80.000000
  0
DICTIONARYVAR
  5
1000036B
102
{ACAD_REACTORS
330
10000368
102
}
330
10000368
100
DictionaryVariables
280
     0
  1
5.000000
  0
XRECORD
  5
10000003
102
{ACAD_REACTORS
330
10000001
102
}
330
10000001
100
AcDbXrecord
 70
     4
  0
XRECORD
  5
10000002
102
{ACAD_REACTORS
330
10000001
102
}
330
10000001
100
AcDbXrecord
1040
89.0
  0
ACAD_PROXY_OBJECT
  5
10000005
102
{ACAD_REACTORS
330
10000001
102
}
330
10000001
100
AcDbProxyObject
 90
      499
 91
      509
 93
       34
310
40C8804040
  0
DICTIONARY
  5
1000037A
330
45
100
AcDbDictionary
280
     1
  3
ACAD_XREC_ROUNDTRIP
360
1000037B
  0
DICTIONARY
  5
10000378
330
44
100
AcDbDictionary
280
     1
  3
ACAD_XREC_ROUNDTRIP
360
10000379
  0
DICTIONARY
  5
1000037C
330
46
100
AcDbDictionary
280
     1
  3
ACAD_XREC_ROUNDTRIP
360
1000037D
  0
XRECORD
  5
1000037B
102
{ACAD_REACTORS
330
1000037A
102
}
330
1000037A
100
AcDbXrecord
102
MATERIAL
148
0.0
149
0.0
149
0.0
 93
        0
 94
      127
282
     0
 72
     1
 77
     1
171
     1
175
     1
179
     1
273
     0
  0
XRECORD
  5
10000379
102
{ACAD_REACTORS
330
10000378
102
}
330
10000378
100
AcDbXrecord
102
MATERIAL
148
0.0
149
0.0
149
0.0
 93
        0
 94
      127
282
     0
 72
     1
 77
     1
171
     1
175
     1
179
     1
273
     0
  0
XRECORD
  5
1000037D
102
{ACAD_REACTORS
330
1000037C
102
}
330
1000037C
100
AcDbXrecord
102
MATERIAL
148
0.0
149
0.0
149
0.0
 93
        0
 94
      127
282
     0
 72
     1
 77
     1
171
     1
175
     1
179
     1
273
     0
  0
ENDSEC
  0
EOF
