  0
SECTION
  2
HEADER
  9
$ACADVER
  1
AC1014
  9
$ACADMAINTVER
 70
     9
  9
$DWGCODEPAGE
  3
ANSI_1252
  9
$INSBASE
 10
0.0
 20
0.0
 30
0.0
  9
$EXTMIN
 10
1.000000000000000E+20
 20
1.000000000000000E+20
 30
1.000000000000000E+20
  9
$EXTMAX
 10
-1.000000000000000E+20
 20
-1.000000000000000E+20
 30
-1.000000000000000E+20
  9
$LIMMIN
 10
0.0
 20
0.0
  9
$LIMMAX
 10
420.0
 20
297.0
  9
$ORTHOMODE
 70
     0
  9
$REGENMODE
 70
     1
  9
$FILLMODE
 70
     1
  9
$QTEXTMODE
 70
     0
  9
$MIRRTEXT
 70
     1
  9
$DRAGMODE
 70
     2
  9
$LTSCALE
 40
1.0
  9
$OSMODE
 70
    37
  9
$ATTMODE
 70
     1
  9
$TEXTSIZE
 40
2.5
  9
$TRACEWID
 40
1.0
  9
$TEXTSTYLE
  7
STANDARD
  9
$CLAYER
  8
0
  9
$CELTYPE
  6
BYLAYER
  9
$CECOLOR
 62
   256
  9
$CELTSCALE
 40
1.0
  9
$DELOBJ
 70
     1
  9
$DISPSILH
 70
     0
  9
$DIMSCALE
 40
1.0
  9
$DIMASZ
 40
2.5
  9
$DIMEXO
 40
0.625
  9
$DIMDLI
 40
3.75
  9
$DIMRND
 40
0.0
  9
$DIMDLE
 40
0.0
  9
$DIMEXE
 40
1.25
  9
$DIMTP
 40
0.0
  9
$DIMTM
 40
0.0
  9
$DIMTXT
 40
2.5
  9
$DIMCEN
 40
2.5
  9
$DIMTSZ
 40
0.0
  9
$DIMTOL
 70
     0
  9
$DIMLIM
 70
     0
  9
$DIMTIH
 70
     0
  9
$DIMTOH
 70
     0
  9
$DIMSE1
 70
     0
  9
$DIMSE2
 70
     0
  9
$DIMTAD
 70
     1
  9
$DIMZIN
 70
     8
  9
$DIMBLK
  1

  9
$DIMASO
 70
     1
  9
$DIMSHO
 70
     1
  9
$DIMPOST
  1

  9
$DIMAPOST
  1

  9
$DIMALT
 70
     0
  9
$DIMALTD
 70
     3
  9
$DIMALTF
 40
0.03937007874016
  9
$DIMLFAC
 40
1.0
  9
$DIMTOFL
 70
     1
  9
$DIMTVP
 40
0.0
  9
$DIMTIX
 70
     0
  9
$DIMSOXD
 70
     0
  9
$DIMSAH
 70
     0
  9
$DIMBLK1
  1

  9
$DIMBLK2
  1

  9
$DIMSTYLE
  2
ISO-25
  9
$DIMCLRD
 70
     0
  9
$DIMCLRE
 70
     0
  9
$DIMCLRT
 70
     0
  9
$DIMTFAC
 40
1.0
  9
$DIMGAP
 40
0.625
  9
$DIMJUST
 70
     0
  9
$DIMSD1
 70
     0
  9
$DIMSD2
 70
     0
  9
$DIMTOLJ
 70
     0
  9
$DIMTZIN
 70
     8
  9
$DIMALTZ
 70
     0
  9
$DIMALTTZ
 70
     0
  9
$DIMFIT
 70
     3
  9
$DIMUPT
 70
     0
  9
$DIMUNIT
 70
     2
  9
$DIMDEC
 70
     2
  9
$DIMTDEC
 70
     2
  9
$DIMALTU
 70
     2
  9
$DIMALTTD
 70
     3
  9
$DIMTXSTY
  7
STANDARD
  9
$DIMAUNIT
 70
     0
  9
$LUNITS
 70
     2
  9
$LUPREC
 70
     4
  9
$SKETCHINC
 40
1.0
  9
$FILLETRAD
 40
0.0
  9
$AUNITS
 70
     0
  9
$AUPREC
 70
     0
  9
$MENU
  1
.
  9
$ELEVATION
 40
0.0
  9
$PELEVATION
 40
0.0
  9
$THICKNESS
 40
0.0
  9
$LIMCHECK
 70
     0
  9
$CHAMFERA
 40
0.0
  9
$CHAMFERB
 40
0.0
  9
$CHAMFERC
 40
0.0
  9
$CHAMFERD
 40
0.0
  9
$SKPOLY
 70
     0
  9
$TDCREATE
 40
2461032.055891945
  9
$TDUPDATE
 40
2461032.055892003
  9
$TDINDWG
 40
0.0000000116
  9
$TDUSRTIMER
 40
0.0000000116
  9
$USRTIMER
 70
     1
  9
$ANGBASE
 50
0.0
  9
$ANGDIR
 70
     0
  9
$PDMODE
 70
     0
  9
$PDSIZE
 40
0.0
  9
$PLINEWID
 40
0.0
  9
$COORDS
 70
     1
  9
$SPLFRAME
 70
     0
  9
$SPLINETYPE
 70
     6
  9
$SPLINESEGS
 70
     8
  9
$ATTDIA
 70
     0
  9
$ATTREQ
 70
     1
  9
$HANDLING
 70
     1
  9
$HANDSEED
  5
10000279
  9
$SURFTAB1
 70
     6
  9
$SURFTAB2
 70
     6
  9
$SURFTYPE
 70
     6
  9
$SURFU
 70
     6
  9
$SURFV
 70
     6
  9
$UCSNAME
  2

  9
$UCSORG
 10
0.0
 20
0.0
 30
0.0
  9
$UCSXDIR
 10
1.0
 20
0.0
 30
0.0
  9
$UCSYDIR
 10
0.0
 20
1.0
 30
0.0
  9
$PUCSNAME
  2

  9
$PUCSORG
 10
0.0
 20
0.0
 30
0.0
  9
$PUCSXDIR
 10
1.0
 20
0.0
 30
0.0
  9
$PUCSYDIR
 10
0.0
 20
1.0
 30
0.0
  9
$USERI1
 70
     0
  9
$USERI2
 70
     0
  9
$USERI3
 70
     0
  9
$USERI4
 70
     0
  9
$USERI5
 70
     0
  9
$USERR1
 40
0.0
  9
$USERR2
 40
0.0
  9
$USERR3
 40
0.0
  9
$USERR4
 40
0.0
  9
$USERR5
 40
0.0
  9
$WORLDVIEW
 70
     1
  9
$SHADEDGE
 70
     3
  9
$SHADEDIF
 70
    70
  9
$TILEMODE
 70
     1
  9
$MAXACTVP
 70
    64
  9
$PINSBASE
 10
0.0
 20
0.0
 30
0.0
  9
$PLIMCHECK
 70
     0
  9
$PEXTMIN
 10
1.000000000000000E+20
 20
1.000000000000000E+20
 30
1.000000000000000E+20
  9
$PEXTMAX
 10
-1.000000000000000E+20
 20
-1.000000000000000E+20
 30
-1.000000000000000E+20
  9
$PLIMMIN
 10
0.0
 20
0.0
  9
$PLIMMAX
 10
420.0
 20
297.0
  9
$UNITMODE
 70
     0
  9
$VISRETAIN
 70
     1
  9
$PLINEGEN
 70
     0
  9
$PSLTSCALE
 70
     1
  9
$TREEDEPTH
 70
  3020
  9
$PICKSTYLE
 70
     1
  9
$CMLSTYLE
  2
STANDARD
  9
$CMLJUST
 70
     0
  9
$CMLSCALE
 40
20.0
  9
$PROXYGRAPHICS
 70
     1
  9
$MEASUREMENT
 70
     1
  0
ENDSEC
  0
SECTION
  2
CLASSES
  0
CLASS
  1
ACDBDICTIONARYWDFLT
  2
AcDbDictionaryWithDefault
  3
ObjectDBX Classes
 90
        0
280
     0
281
     0
  0
CLASS
  1
VISUALSTYLE
  2
AcDbVisualStyle
  3
ObjectDBX Classes
 90
     4095
280
     0
281
     0
  0
CLASS
  1
MATERIAL
  2
AcDbMaterial
  3
ObjectDBX Classes
 90
     1153
280
     0
281
     0
  0
CLASS
  1
SCALE
  2
AcDbScale
  3
ObjectDBX Classes
 90
     1153
280
     0
281
     0
  0
CLASS
  1
TABLESTYLE
  2
AcDbTableStyle
  3
ObjectDBX Classes
 90
     4095
280
     0
281
     0
  0
CLASS
  1
MLEADERSTYLE
  2
AcDbMLeaderStyle
  3
ACDB_MLEADERSTYLE_CLASS
 90
     4095
280
     0
281
     0
  0
CLASS
  1
SUN
  2
AcDbSun
  3
SCENEOE
 90
     1153
280
     0
281
     0
  0
CLASS
  1
SORTENTSTABLE
  2
AcDbSortentsTable
  3
ObjectDBX Classes
 90
        0
280
     0
281
     0
  0
CLASS
  1
DICTIONARYVAR
  2
AcDbDictionaryVar
  3
ObjectDBX Classes
 90
        0
280
     0
281
     0
  0
CLASS
  1
XRECORD
  2
AcDbXrecord
  3
ObjectDBX Classes
 90
        0
280
     0
281
     0
  0
CLASS
  1
LWPOLYLINE
  2
AcDbPolyline
  3
ObjectDBX Classes
 90
        0
280
     0
281
     1
  0
CLASS
  1
HATCH
  2
AcDbHatch
  3
ObjectDBX Classes
 90
        0
280
     0
281
     1
  0
CLASS
  1
ACDBPLACEHOLDER
  2
AcDbPlaceHolder
  3
ObjectDBX Classes
 90
        0
280
     0
281
     0
  0
CLASS
  1
LAYOUT
  2
AcDbLayout
  3
ObjectDBX Classes
 90
        0
280
     0
281
     0
  0
ENDSEC
  0
SECTION
  2
TABLES
  0
TABLE
  2
VPORT
  5
8
102
{ACAD_XDICTIONARY
360
1000026E
102
}
330
0
100
AcDbSymbolTable
 70
     1
  0
VPORT
  5
29
330
8
100
AcDbSymbolTableRecord
100
AcDbViewportTableRecord
  2
*ACTIVE
 70
     0
 10
0.0
 20
0.0
 11
1.0
 21
1.0
 12
344.1869158878504
 22
148.5
 13
0.0
 23
0.0
 14
10.0
 24
10.0
 15
10.0
 25
10.0
 16
0.0
 26
0.0
 36
1.0
 17
0.0
 27
0.0
 37
0.0
 40
297.0
 41
1.972972972850329
 42
50.0
 43
0.0
 44
0.0
 50
0.0
 51
0.0
 71
     0
 72
   100
 73
     1
 74
     3
 75
     0
 76
     0
 77
     0
 78
     0
  0
ENDTAB
  0
TABLE
  2
LTYPE
  5
5
330
0
100
AcDbSymbolTable
 70
     7
  0
LTYPE
  5
14
330
5
100
AcDbSymbolTableRecord
100
AcDbLinetypeTableRecord
  2
BYBLOCK
 70
     0
  3

 72
    65
 73
     0
 40
0.0
  0
LTYPE
  5
15
330
5
100
AcDbSymbolTableRecord
100
AcDbLinetypeTableRecord
  2
BYLAYER
 70
     0
  3

 72
    65
 73
     0
 40
0.0
  0
LTYPE
  5
16
330
5
100
AcDbSymbolTableRecord
100
AcDbLinetypeTableRecord
  2
CONTINUOUS
 70
     0
  3
Solid line
 72
    65
 73
     0
 40
0.0
  0
LTYPE
  5
10000024
330
5
100
AcDbSymbolTableRecord
100
AcDbLinetypeTableRecord
  2
ONS_PHANTOM
 70
     0
  3
Onshape Phantom line ______ __ __ ______
 72
    65
 73
     6
 40
0.4999999999999999
 49
0.25
 74
     0
 49
-0.05
 74
     0
 49
0.05
 74
     0
 49
-0.05
 74
     0
 49
0.05
 74
     0
 49
-0.05
 74
     0
  0
LTYPE
  5
10000025
330
5
100
AcDbSymbolTableRecord
100
AcDbLinetypeTableRecord
  2
CENTER
 70
     0
  3
Center line ____ _ ____ _ ____ _
 72
    65
 73
     4
 40
0.7874015748031495
 49
0.4921259842519685
 74
     0
 49
-0.0984251968503937
 74
     0
 49
0.0984251968503937
 74
     0
 49
-0.0984251968503937
 74
     0
  0
LTYPE
  5
10000026
330
5
100
AcDbSymbolTableRecord
100
AcDbLinetypeTableRecord
  2
DASHED
 70
     0
  3
Dashed line __ __ __ __ __
 72
    65
 73
     2
 40
0.75
 49
0.5
 74
     0
 49
-0.25
 74
     0
  0
LTYPE
  5
10000027
330
5
100
AcDbSymbolTableRecord
100
AcDbLinetypeTableRecord
  2
ONS_DASHDOT
 70
     0
  3
Onshape Dashed with Dot _ . ____ . ____
 72
    65
 73
     4
 40
0.71
 49
0.5
 74
     0
 49
-0.1
 74
     0
 49
0.01
 74
     0
 49
-0.1
 74
     0
  0
LTYPE
  5
10000028
330
5
100
AcDbSymbolTableRecord
100
AcDbLinetypeTableRecord
  2
ONS_DOTTED
 70
     0
  3
Onshape Dotted line . . . . . . .
 72
    65
 73
     2
 40
0.11
 49
0.01
 74
     0
 49
-0.1
 74
     0
  0
LTYPE
  5
10000029
330
5
100
AcDbSymbolTableRecord
100
AcDbLinetypeTableRecord
  2
HIDDEN
 70
     0
  3
Hidden line ____ ____ ____ ____ 
 72
    65
 73
     2
 40
0.15
 49
0.1
 74
     0
 49
-0.05
 74
     0
  0
ENDTAB
  0
TABLE
  2
LAYER
  5
2
330
0
100
AcDbSymbolTable
 70
    48
  0
LAYER
  5
10
330
2
100
AcDbSymbolTableRecord
100
AcDbLayerTableRecord
  2
0
 70
     0
 62
     7
  6
CONTINUOUS
  0
LAYER
  5
1000002A
330
2
100
AcDbSymbolTableRecord
100
AcDbLayerTableRecord
  2
SECTION_CUTTING_LINE
 70
     0
 62
     7
  6
ONS_DASHDOT
  0
LAYER
  5
1000002B
330
2
100
AcDbSymbolTableRecord
100
AcDbLayerTableRecord
  2
DETAIL_VIEW_BORDER
 70
     0
 62
     7
  6
CONTINUOUS
  0
LAYER
  5
1000002C
330
2
100
AcDbSymbolTableRecord
100
AcDbLayerTableRecord
  2
DETAIL_VIEW_PARENT_BORDER
 70
     0
 62
     7
  6
ONS_PHANTOM
  0
LAYER
  5
1000002D
330
2
100
AcDbSymbolTableRecord
100
AcDbLayerTableRecord
  2
TEXT
 70
     0
 62
     7
  6
CONTINUOUS
  0
LAYER
  5
1000002E
330
2
100
AcDbSymbolTableRecord
100
AcDbLayerTableRecord
  2
SKETCHED_GEOMETRY
 70
     0
 62
    -7
  6
CONTINUOUS
  0
LAYER
  5
1000002F
330
2
100
AcDbSymbolTableRecord
100
AcDbLayerTableRecord
  2
VIRTUAL_SHARPS
 70
     0
 62
    -7
  6
CONTINUOUS
  0
LAYER
  5
10000030
330
2
100
AcDbSymbolTableRecord
100
AcDbLayerTableRecord
  2
CENTERLINES
 70
     0
 62
    -7
  6
CENTER
  0
LAYER
  5
10000031
330
2
100
AcDbSymbolTableRecord
100
AcDbLayerTableRecord
  2
CENTERMARKS
 70
     0
 62
    -7
  6
CONTINUOUS
  0
LAYER
  5
10000032
330
2
100
AcDbSymbolTableRecord
100
AcDbLayerTableRecord
  2
TABLES
 70
     0
 62
     7
  6
CONTINUOUS
  0
LAYER
  5
10000033
330
2
100
AcDbSymbolTableRecord
100
AcDbLayerTableRecord
  2
IMAGES
 70
     0
 62
    -7
  6
CONTINUOUS
  0
LAYER
  5
10000034
330
2
100
AcDbSymbolTableRecord
100
AcDbLayerTableRecord
  2
ANNOTATION_LINES
 70
     0
 62
    -7
  6
CONTINUOUS
  0
LAYER
  5
10000035
330
2
100
AcDbSymbolTableRecord
100
AcDbLayerTableRecord
  2
ANNOTATION_TEXT
 70
     0
 62
    -7
  6
CONTINUOUS
  0
LAYER
  5
10000036
330
2
100
AcDbSymbolTableRecord
100
AcDbLayerTableRecord
  2
SIDE_THREAD_SYMBOLS
 70
     0
 62
     7
  6
CONTINUOUS
  0
LAYER
  5
10000037
330
2
100
AcDbSymbolTableRecord
100
AcDbLayerTableRecord
  2
SIDE_THREAD_SYMBOLS_HIDDEN
 70
     0
 62
    -7
  6
HIDDEN
  0
LAYER
  5
10000038
330
2
100
AcDbSymbolTableRecord
100
AcDbLayerTableRecord
  2
SURFACE_THREAD_SYMBOLS
 70
     0
 62
     7
  6
CONTINUOUS
  0
LAYER
  5
10000039
330
2
100
AcDbSymbolTableRecord
100
AcDbLayerTableRecord
  2
SURFACE_THREAD_SYMBOLS_ON_
 70
     0
 62
     7
  6
CONTINUOUS
  0
LAYER
  5
1000003A
330
2
100
AcDbSymbolTableRecord
100
AcDbLayerTableRecord
  2
SURFACE_THREAD_SYMBOLS_HID
 70
     0
 62
    -7
  6
HIDDEN
  0
LAYER
  5
1000003B
330
2
100
AcDbSymbolTableRecord
100
AcDbLayerTableRecord
  2
BLIND_THREAD_SYMBOLS
 70
     0
 62
     7
  6
CONTINUOUS
  0
LAYER
  5
1000003C
330
2
100
AcDbSymbolTableRecord
100
AcDbLayerTableRecord
  2
BLIND_THREAD_SYMBOLS_HIDDE
 70
     0
 62
    -7
  6
HIDDEN
  0
LAYER
  5
1000003D
330
2
100
AcDbSymbolTableRecord
100
AcDbLayerTableRecord
  2
EXPLODE_LINES
 70
     0
 62
     7
  6
ONS_PHANTOM
  0
LAYER
  5
1000003E
330
2
100
AcDbSymbolTableRecord
100
AcDbLayerTableRecord
  2
HIDDEN_EXPLODE_LINES
 70
     0
 62
    -7
  6
ONS_PHANTOM
  0
LAYER
  5
1000003F
330
2
100
AcDbSymbolTableRecord
100
AcDbLayerTableRecord
  2
BREAK_LINES
 70
     0
 62
    -7
  6
CONTINUOUS
  0
LAYER
  5
10000040
330
2
100
AcDbSymbolTableRecord
100
AcDbLayerTableRecord
  2
SHEETMETAL_BEND_LINES_UP
 70
     0
 62
     7
  6
CENTER
  0
LAYER
  5
10000041
330
2
100
AcDbSymbolTableRecord
100
AcDbLayerTableRecord
  2
SHEETMETAL_BEND_LINES_DOWN
 70
     0
 62
     7
  6
CENTER
  0
LAYER
  5
10000042
330
2
100
AcDbSymbolTableRecord
100
AcDbLayerTableRecord
  2
SHEETMETAL_BEND_TANGENT_LI
 70
     0
 62
     7
  6
CONTINUOUS
  0
LAYER
  5
10000043
330
2
100
AcDbSymbolTableRecord
100
AcDbLayerTableRecord
  2
SHEETMETAL_CUT_LINES
 70
     0
 62
     7
  6
CONTINUOUS
  0
LAYER
  5
10000044
330
2
100
AcDbSymbolTableRecord
100
AcDbLayerTableRecord
  2
SHEETMETAL_CBORE_CSINK_UP
 70
     0
 62
     7
  6
CONTINUOUS
  0
LAYER
  5
10000045
330
2
100
AcDbSymbolTableRecord
100
AcDbLayerTableRecord
  2
SHEETMETAL_CBORE_CSINK_DOW
 70
     0
 62
     7
  6
CONTINUOUS
  0
LAYER
  5
10000046
330
2
100
AcDbSymbolTableRecord
100
AcDbLayerTableRecord
  2
SHEETMETAL_CBORE_CSINK_UP_
 70
     0
 62
    -7
  6
HIDDEN
  0
LAYER
  5
10000047
330
2
100
AcDbSymbolTableRecord
100
AcDbLayerTableRecord
  2
SHEETMETAL_CBORE_CSINK_DO0
 70
     0
 62
    -7
  6
HIDDEN
  0
LAYER
  5
10000048
330
2
100
AcDbSymbolTableRecord
100
AcDbLayerTableRecord
  2
SHEETMETAL_FORM_TEAR
 70
     0
 62
     7
  6
CONTINUOUS
  0
LAYER
  5
10000049
330
2
100
AcDbSymbolTableRecord
100
AcDbLayerTableRecord
  2
SHEETMETAL_FORM_UP
 70
     0
 62
     7
  6
CENTER
  0
LAYER
  5
1000004A
330
2
100
AcDbSymbolTableRecord
100
AcDbLayerTableRecord
  2
SHEETMETAL_FORM_DOWN
 70
     0
 62
     7
  6
CENTER
  0
LAYER
  5
1000004B
330
2
100
AcDbSymbolTableRecord
100
AcDbLayerTableRecord
  2
SHEETMETAL_FORM_CENTERMARK
 70
     0
 62
     7
  6
CENTER
  0
LAYER
  5
1000004C
330
2
100
AcDbSymbolTableRecord
100
AcDbLayerTableRecord
  2
REGION_ASSOC_POINTS
 70
     0
 62
    -7
  6
CONTINUOUS
  0
LAYER
  5
1000004D
330
2
100
AcDbSymbolTableRecord
100
AcDbLayerTableRecord
  2
PATTERN_CENTERLINES
 70
     1
 62
    -7
  6
CENTER
  0
LAYER
  5
1000004E
330
2
100
AcDbSymbolTableRecord
100
AcDbLayerTableRecord
  2
HIDDEN
 70
     0
 62
    -7
  6
HIDDEN
  0
LAYER
  5
1000004F
330
2
100
AcDbSymbolTableRecord
100
AcDbLayerTableRecord
  2
VISIBLE
 70
     0
 62
     7
  6
CONTINUOUS
  0
LAYER
  5
10000050
330
2
100
AcDbSymbolTableRecord
100
AcDbLayerTableRecord
  2
MODELSKETCH_VISIBLE
 70
     0
 62
     7
  6
CONTINUOUS
  0
LAYER
  5
10000051
330
2
100
AcDbSymbolTableRecord
100
AcDbLayerTableRecord
  2
MODELSKETCH_POINT
 70
     0
 62
     7
  6
CONTINUOUS
  0
LAYER
  5
10000052
330
2
100
AcDbSymbolTableRecord
100
AcDbLayerTableRecord
  2
MODELSKETCH_CONSTRUCTION
 70
     0
 62
    -7
  6
CENTER
  0
LAYER
  5
10000053
330
2
100
AcDbSymbolTableRecord
100
AcDbLayerTableRecord
  2
HIDDEN_BASE_VIEW
 70
     0
 62
     7
  6
CONTINUOUS
  0
LAYER
  5
10000054
330
2
100
AcDbSymbolTableRecord
100
AcDbLayerTableRecord
  2
TANGENT_LINES
 70
     0
 62
    -7
  6
CONTINUOUS
  0
LAYER
  5
10000055
330
2
100
AcDbSymbolTableRecord
100
AcDbLayerTableRecord
  2
TANGENT_HIDDEN
 70
     0
 62
    -7
  6
HIDDEN
  0
LAYER
  5
10000056
330
2
100
AcDbSymbolTableRecord
100
AcDbLayerTableRecord
  2
INVISIBLE_LINES
 70
     0
 62
    -7
  6
CONTINUOUS
  0
LAYER
  5
10000057
330
2
100
AcDbSymbolTableRecord
100
AcDbLayerTableRecord
  2
VIEW_HATCHES
 70
     0
 62
    -7
  6
CONTINUOUS
  0
LAYER
  5
10000058
330
2
100
AcDbSymbolTableRecord
100
AcDbLayerTableRecord
  2
SECTION_JOG_LINES
 70
     0
 62
    -7
  6
CONTINUOUS
  0
ENDTAB
  0
TABLE
  2
STYLE
  5
3
330
0
100
AcDbSymbolTable
 70
     2
  0
STYLE
  5
11
330
3
100
AcDbSymbolTableRecord
100
AcDbTextStyleTableRecord
  2
STANDARD
 70
     0
 40
0.0
 41
1.0
 50
0.0
 71
     0
 42
2.5
  3
txt
  4

  0
STYLE
  5
10000004
330
3
100
AcDbSymbolTableRecord
100
AcDbTextStyleTableRecord
  2
TTFSTYLE
 70
     0
 40
0.0
 41
1.0
 50
0.0
 71
     0
 42
2.5
  3

  4

1001
ACAD
1000
Verdana
1071
       34
  0
ENDTAB
  0
TABLE
  2
VIEW
  5
6
330
0
100
AcDbSymbolTable
 70
     0
  0
ENDTAB
  0
TABLE
  2
UCS
  5
7
330
0
100
AcDbSymbolTable
 70
     0
  0
ENDTAB
  0
TABLE
  2
APPID
  5
9
330
0
100
AcDbSymbolTable
 70
     2
  0
APPID
  5
12
330
9
100
AcDbSymbolTableRecord
100
AcDbRegAppTableRecord
  2
ACAD
 70
     0
  0
APPID
  5
10000278
330
9
100
AcDbSymbolTableRecord
100
AcDbRegAppTableRecord
  2
ACAD_MLEADERVER
 70
     0
  0
ENDTAB
  0
TABLE
  2
DIMSTYLE
  5
A
330
0
100
AcDbSymbolTable
 70
     1
  0
DIMSTYLE
105
27
330
A
100
AcDbSymbolTableRecord
100
AcDbDimStyleTableRecord
  2
ISO-25
 70
     0
  3

  4

  5

  6

  7

 40
1.0
 41
2.5
 42
0.625
 43
3.75
 44
1.25
 45
0.0
 46
0.0
 47
0.0
 48
0.0
140
2.5
141
2.5
142
0.0
143
0.03937007874016
144
1.0
145
0.0
146
1.0
147
0.625
 71
     0
 72
     0
 73
     0
 74
     0
 75
     0
 76
     0
 77
     1
 78
     8
170
     0
171
     3
172
     1
173
     0
174
     0
175
     0
176
     0
177
     0
178
     0
270
     2
271
     2
272
     2
273
     2
274
     3
340
11
275
     0
280
     0
281
     0
282
     0
283
     0
284
     8
285
     0
286
     0
287
     3
288
     0
  0
ENDTAB
  0
TABLE
  2
BLOCK_RECORD
  5
1
330
0
100
AcDbSymbolTable
 70
     0
  0
BLOCK_RECORD
  5
1F
102
{ACAD_XDICTIONARY
360
1000023F
102
}
330
1
100
AcDbSymbolTableRecord
100
AcDbBlockTableRecord
  2
*MODEL_SPACE
  0
BLOCK_RECORD
  5
1B
330
1
100
AcDbSymbolTableRecord
100
AcDbBlockTableRecord
  2
*PAPER_SPACE
  0
ENDTAB
  0
ENDSEC
  0
SECTION
  2
BLOCKS
  0
BLOCK
  5
20
330
1F
100
AcDbEntity
  8
0
100
AcDbBlockBegin
  2
*MODEL_SPACE
 70
     0
 10
0.0
 20
0.0
 30
0.0
  3
*MODEL_SPACE
  1

  0
ENDBLK
  5
21
330
1F
100
AcDbEntity
  8
0
100
AcDbBlockEnd
  0
BLOCK
  5
1C
330
1B
100
AcDbEntity
 67
     1
  8
0
100
AcDbBlockBegin
  2
*PAPER_SPACE
 70
     0
 10
0.0
 20
0.0
 30
0.0
  3
*PAPER_SPACE
  1

  0
ENDBLK
  5
1D
330
1B
100
AcDbEntity
 67
     1
  8
0
100
AcDbBlockEnd
  0
ENDSEC
  0
SECTION
  2
ENTITIES
  0
CIRCLE
  5
10000059
102
{ACAD_XDICTIONARY
360
1000005A
102
}
330
1F
100
AcDbEntity
  8
VISIBLE
100
AcDbCircle
 10
0.0
 20
0.0
 30
0.0
 40
2.5
  0
ARC
  5
1000005F
102
{ACAD_XDICTIONARY
360
10000060
102
}
330
1F
100
AcDbEntity
  8
VISIBLE
100
AcDbCircle
 10
0.0
 20
0.0
 30
0.0
 40
11.9492
100
AcDbArc
 50
160.5368772719953
 51
169.4631227280045
  0
ARC
  5
10000065
102
{ACAD_XDICTIONARY
360
10000066
102
}
330
1F
100
AcDbEntity
  8
VISIBLE
100
AcDbCircle
 10
-12.211746418123
 20
2.27144422327757
 30
0.0
 40
0.472
100
AcDbArc
 50
261.6842427550853
 51
349.4631227280061
  0
LINE
  5
1000006B
102
{ACAD_XDICTIONARY
360
1000006C
102
}
330
1F
100
AcDbEntity
  8
VISIBLE
100
AcDbLine
 10
-12.2800109902463
 20
1.80440680701115
 30
0.0
 11
-13.9458288142221
 21
2.0478912410813
 31
0.0
  0
SPLINE
  5
1000006F
102
{ACAD_XDICTIONARY
360
10000070
102
}
330
1F
100
AcDbEntity
  8
VISIBLE
100
AcDbSpline
210
0.0
220
0.0
230
1.0
 70
    12
 71
     5
 72
    81
 73
    75
 74
     0
 42
0.0000000001
 43
0.00000001
 40
0.0
 40
0.0
 40
0.0
 40
0.0
 40
0.0
 40
0.0
 40
0.0142857142857143
 40
0.0285714285714286
 40
0.0428571428571429
 40
0.0571428571428571
 40
0.0714285714285714
 40
0.0857142857142857
 40
0.1
 40
0.114285714285714
 40
0.128571428571429
 40
0.142857142857143
 40
0.157142857142857
 40
0.171428571428571
 40
0.185714285714286
 40
0.2
 40
0.214285714285714
 40
0.228571428571429
 40
0.242857142857143
 40
0.257142857142857
 40
0.271428571428571
 40
0.285714285714286
 40
0.3
 40
0.314285714285714
 40
0.328571428571429
 40
0.342857142857143
 40
0.357142857142857
 40
0.371428571428571
 40
0.385714285714286
 40
0.4
 40
0.414285714285714
 40
0.428571428571429
 40
0.442857142857143
 40
0.457142857142857
 40
0.471428571428572
 40
0.485714285714286
 40
0.5
 40
0.514285714285714
 40
0.528571428571429
 40
0.542857142857143
 40
0.5571428571428569
 40
0.571428571428571
 40
0.585714285714286
 40
0.6
 40
0.614285714285714
 40
0.628571428571428
 40
0.642857142857142
 40
0.6571428571428569
 40
0.6714285714285709
 40
0.6857142857142849
 40
0.7
 40
0.714285714285714
 40
0.728571428571428
 40
0.742857142857142
 40
0.7571428571428559
 40
0.7714285714285709
 40
0.7857142857142849
 40
0.8
 40
0.8142857142857131
 40
0.8285714285714281
 40
0.842857142857142
 40
0.857142857142856
 40
0.87142857142857
 40
0.885714285714284
 40
0.9
 40
0.914285714285713
 40
0.928571428571427
 40
0.9428571428571411
 40
0.957142857142856
 40
0.97142857142857
 40
0.985714285714284
 40
1.0
 40
1.0
 40
1.0
 40
1.0
 40
1.0
 40
1.0
 10
-13.9458288142221
 20
2.0478912410813
 30
0.0
 41
1.0
 10
-13.9558546936855
 20
2.04935667478723
 30
0.0
 41
1.0
 10
-13.975931600121
 20
2.05196744376108
 30
0.0
 41
1.0
 10
-14.0061224013745
 20
2.054923317071661
 30
0.0
 41
1.0
 10
-14.0465212645082
 20
2.057039212566
 30
0.0
 41
1.0
 10
-14.0972228990995
 20
2.05719374853789
 30
0.0
 41
1.0
 10
-14.1480788662636
 20
2.0555570530445
 30
0.0
 41
1.0
 10
-14.199039651832
 20
2.05281635564806
 30
0.0
 41
1.0
 10
-14.2500661151694
 20
2.04947225043192
 30
0.0
 41
1.0
 10
-14.3011379744026
 20
2.0457079185261
 30
0.0
 41
1.0
 10
-14.3522475692753
 20
2.04149965126194
 30
0.0
 41
1.0
 10
-14.4033952917561
 20
2.03670035421461
 30
0.0
 41
1.0
 10
-14.454584643907
 20
2.03112839261881
 30
0.0
 41
1.0
 10
-14.5058168458364
 20
2.0246657018613
 30
0.0
 41
1.0
 10
-14.5570876226576
 20
2.01731442062386
 30
0.0
 41
1.0
 10
-14.6083896793345
 20
2.00914629597693
 30
0.0
 41
1.0
 10
-14.6597141164522
 20
2.0002719183401
 30
0.0
 41
1.0
 10
-14.711052139464
 20
1.99080474995765
 30
0.0
 41
1.0
 10
-14.7623969421309
 20
1.98082112687549
 30
0.0
 41
1.0
 10
-14.8137444506773
 20
1.97034424319341
 30
0.0
 41
1.0
 10
-14.8650922421832
 20
1.95936622843625
 30
0.0
 41
1.0
 10
-14.9164388806956
 20
1.94786152134633
 30
0.0
 41
1.0
 10
-14.967783146808
 20
1.93580248772505
 30
0.0
 41
1.0
 10
-15.0191231648786
 20
1.92317712573035
 30
0.0
 41
1.0
 10
-15.0704561536318
 20
1.90999397584266
 30
0.0
 41
1.0
 10
-15.1217788610528
 20
1.89627297312156
 30
0.0
 41
1.0
 10
-15.1730878245483
 20
1.88203989327388
 30
0.0
 41
1.0
 10
-15.2243796760436
 20
1.86731988854564
 30
0.0
 41
1.0
 10
-15.2756514925171
 20
1.8521300748788
 30
0.0
 41
1.0
 10
-15.3269008539246
 20
1.83647821893213
 30
0.0
 41
1.0
 10
-15.3781256528457
 20
1.82036659784808
 30
0.0
 41
1.0
 10
-15.4293239715352
 20
1.80379446108758
 30
0.0
 41
1.0
 10
-15.4804939431549
 20
1.78676083053
 30
0.0
 41
1.0
 10
-15.5316335917172
 20
1.76926774177037
 30
0.0
 41
1.0
 10
-15.5827408086001
 20
1.75132068220392
 30
0.0
 41
1.0
 10
-15.6338134277219
 20
1.73292700331638
 30
0.0
 41
1.0
 10
-15.6848492735483
 20
1.71409490106277
 30
0.0
 41
1.0
 10
-15.7358462155631
 20
1.69483226472071
 30
0.0
 41
1.0
 10
-15.7868022326587
 20
1.67514534099124
 30
0.0
 41
1.0
 10
-15.8377154171204
 20
1.65503859612397
 30
0.0
 41
1.0
 10
-15.8885839373864
 20
1.63451540140161
 30
0.0
 41
1.0
 10
-15.9394060125613
 20
1.61357849056887
 30
0.0
 41
1.0
 10
-15.9901798849073
 20
1.59223047023234
 30
0.0
 41
1.0
 10
-16.0409037875524
 20
1.57047441783103
 30
0.0
 41
1.0
 10
-16.091575941517
 20
1.54831396462259
 30
0.0
 41
1.0
 10
-16.142194573699
 20
1.52575300566689
 30
0.0
 41
1.0
 10
-16.1927579298344
 20
1.50279551628519
 30
0.0
 41
1.0
 10
-16.2432642880075
 20
1.47944534546785
 30
0.0
 41
1.0
 10
-16.293711977146
 20
1.45570597815609
 30
0.0
 41
1.0
 10
-16.3440993738581
 20
1.43158049816676
 30
0.0
 41
1.0
 10
-16.394424881835
 20
1.40707172286495
 30
0.0
 41
1.0
 10
-16.4446869155736
 20
1.38218229475614
 30
0.0
 41
1.0
 10
-16.494883885266
 20
1.35691478400646
 30
0.0
 41
1.0
 10
-16.5450141756268
 20
1.33127181179954
 30
0.0
 41
1.0
 10
-16.5950761509799
 20
1.30525607909584
 30
0.0
 41
1.0
 10
-16.6450681871753
 20
1.27887029133288
 30
0.0
 41
1.0
 10
-16.6949886989286
 20
1.25211711127305
 30
0.0
 41
1.0
 10
-16.7448361649002
 20
1.22499910817967
 30
0.0
 41
1.0
 10
-16.7946091656503
 20
1.19751869875797
 30
0.0
 41
1.0
 10
-16.8443063770237
 20
1.16967813794478
 30
0.0
 41
1.0
 10
-16.8939264969443
 20
1.14147958682507
 30
0.0
 41
1.0
 10
-16.9434681851668
 20
1.11292516703255
 30
0.0
 41
1.0
 10
-16.992930005636
 20
1.0840170172419
 30
0.0
 41
1.0
 10
-17.0423103507837
 20
1.05475736552138
 30
0.0
 41
1.0
 10
-17.091607430024
 20
1.02514855212895
 30
0.0
 41
1.0
 10
-17.1408194222995
 20
0.9951929200959649
 30
0.0
 41
1.0
 10
-17.1899445999944
 20
0.964892732620673
 30
0.0
 41
1.0
 10
-17.2389814599646
 20
0.9342500838540969
 30
0.0
 41
1.0
 10
-17.2879288640668
 20
0.903266811133132
 30
0.0
 41
1.0
 10
-17.3367861421872
 20
0.871944419907771
 30
0.0
 41
1.0
 10
-17.3855529617594
 20
0.8402840859016181
 30
0.0
 41
1.0
 10
-17.424493973308
 20
0.8146861367585271
 30
0.0
 41
1.0
 10
-17.4536589945522
 20
0.7953362057873621
 30
0.0
 41
1.0
 10
-17.4730842425744
 20
0.782368954552816
 30
0.0
 41
1.0
 10
-17.4827923417152
 20
0.77586850462246
 30
0.0
 41
1.0
  0
ARC
  5
10000073
102
{ACAD_XDICTIONARY
360
10000074
102
}
330
1F
100
AcDbEntity
  8
VISIBLE
100
AcDbCircle
 10
-0.0000000000001799
 20
0.0
 30
0.0
 40
17.5
100
AcDbArc
 50
177.4589390306315
 51
182.5410609693685
  0
SPLINE
  5
10000079
102
{ACAD_XDICTIONARY
360
1000007A
102
}
330
1F
100
AcDbEntity
  8
VISIBLE
100
AcDbSpline
210
0.0
220
0.0
230
1.0
 70
    12
 71
     5
 72
    81
 73
    75
 74
     0
 42
0.0000000001
 43
0.00000001
 40
-1.0
 40
-1.0
 40
-1.0
 40
-1.0
 40
-1.0
 40
-1.0
 40
-0.985714285714284
 40
-0.97142857142857
 40
-0.957142857142856
 40
-0.9428571428571411
 40
-0.928571428571427
 40
-0.914285714285713
 40
-0.9
 40
-0.885714285714284
 40
-0.87142857142857
 40
-0.857142857142856
 40
-0.842857142857142
 40
-0.8285714285714281
 40
-0.8142857142857131
 40
-0.8
 40
-0.7857142857142849
 40
-0.7714285714285709
 40
-0.7571428571428559
 40
-0.742857142857142
 40
-0.728571428571428
 40
-0.714285714285714
 40
-0.7
 40
-0.6857142857142849
 40
-0.6714285714285709
 40
-0.6571428571428569
 40
-0.642857142857142
 40
-0.628571428571428
 40
-0.614285714285714
 40
-0.6
 40
-0.585714285714286
 40
-0.571428571428571
 40
-0.5571428571428569
 40
-0.542857142857143
 40
-0.528571428571429
 40
-0.514285714285714
 40
-0.5
 40
-0.485714285714286
 40
-0.471428571428572
 40
-0.457142857142857
 40
-0.442857142857143
 40
-0.428571428571429
 40
-0.414285714285714
 40
-0.4
 40
-0.385714285714286
 40
-0.371428571428571
 40
-0.357142857142857
 40
-0.342857142857143
 40
-0.328571428571429
 40
-0.314285714285714
 40
-0.3
 40
-0.285714285714286
 40
-0.271428571428571
 40
-0.257142857142857
 40
-0.242857142857143
 40
-0.228571428571429
 40
-0.214285714285714
 40
-0.2
 40
-0.185714285714286
 40
-0.171428571428571
 40
-0.157142857142857
 40
-0.142857142857143
 40
-0.128571428571429
 40
-0.114285714285714
 40
-0.1
 40
-0.0857142857142857
 40
-0.0714285714285714
 40
-0.0571428571428571
 40
-0.0428571428571429
 40
-0.0285714285714286
 40
-0.0142857142857143
 40
0.0
 40
0.0
 40
0.0
 40
0.0
 40
0.0
 40
0.0
 10
-17.4827923417152
 20
-0.77586850462246
 30
0.0
 41
1.0
 10
-17.4730842425744
 20
-0.782368954552816
 30
0.0
 41
1.0
 10
-17.4536589945522
 20
-0.7953362057873621
 30
0.0
 41
1.0
 10
-17.424493973308
 20
-0.8146861367585271
 30
0.0
 41
1.0
 10
-17.3855529617594
 20
-0.8402840859016181
 30
0.0
 41
1.0
 10
-17.3367861421872
 20
-0.871944419907771
 30
0.0
 41
1.0
 10
-17.2879288640668
 20
-0.903266811133132
 30
0.0
 41
1.0
 10
-17.2389814599646
 20
-0.9342500838540969
 30
0.0
 41
1.0
 10
-17.1899445999944
 20
-0.964892732620673
 30
0.0
 41
1.0
 10
-17.1408194222995
 20
-0.9951929200959649
 30
0.0
 41
1.0
 10
-17.091607430024
 20
-1.02514855212895
 30
0.0
 41
1.0
 10
-17.0423103507837
 20
-1.05475736552138
 30
0.0
 41
1.0
 10
-16.992930005636
 20
-1.0840170172419
 30
0.0
 41
1.0
 10
-16.9434681851668
 20
-1.11292516703255
 30
0.0
 41
1.0
 10
-16.8939264969443
 20
-1.14147958682507
 30
0.0
 41
1.0
 10
-16.8443063770237
 20
-1.16967813794478
 30
0.0
 41
1.0
 10
-16.7946091656503
 20
-1.19751869875797
 30
0.0
 41
1.0
 10
-16.7448361649002
 20
-1.22499910817967
 30
0.0
 41
1.0
 10
-16.6949886989286
 20
-1.25211711127305
 30
0.0
 41
1.0
 10
-16.6450681871753
 20
-1.27887029133288
 30
0.0
 41
1.0
 10
-16.5950761509799
 20
-1.30525607909584
 30
0.0
 41
1.0
 10
-16.5450141756268
 20
-1.33127181179954
 30
0.0
 41
1.0
 10
-16.494883885266
 20
-1.35691478400646
 30
0.0
 41
1.0
 10
-16.4446869155736
 20
-1.38218229475614
 30
0.0
 41
1.0
 10
-16.394424881835
 20
-1.40707172286495
 30
0.0
 41
1.0
 10
-16.3440993738581
 20
-1.43158049816676
 30
0.0
 41
1.0
 10
-16.293711977146
 20
-1.45570597815609
 30
0.0
 41
1.0
 10
-16.2432642880075
 20
-1.47944534546785
 30
0.0
 41
1.0
 10
-16.1927579298344
 20
-1.50279551628519
 30
0.0
 41
1.0
 10
-16.142194573699
 20
-1.52575300566689
 30
0.0
 41
1.0
 10
-16.091575941517
 20
-1.54831396462259
 30
0.0
 41
1.0
 10
-16.0409037875524
 20
-1.57047441783103
 30
0.0
 41
1.0
 10
-15.9901798849073
 20
-1.59223047023234
 30
0.0
 41
1.0
 10
-15.9394060125613
 20
-1.61357849056887
 30
0.0
 41
1.0
 10
-15.8885839373864
 20
-1.63451540140161
 30
0.0
 41
1.0
 10
-15.8377154171204
 20
-1.65503859612397
 30
0.0
 41
1.0
 10
-15.7868022326587
 20
-1.67514534099124
 30
0.0
 41
1.0
 10
-15.7358462155631
 20
-1.69483226472071
 30
0.0
 41
1.0
 10
-15.6848492735483
 20
-1.71409490106277
 30
0.0
 41
1.0
 10
-15.6338134277219
 20
-1.73292700331638
 30
0.0
 41
1.0
 10
-15.5827408086001
 20
-1.75132068220392
 30
0.0
 41
1.0
 10
-15.5316335917172
 20
-1.76926774177037
 30
0.0
 41
1.0
 10
-15.4804939431549
 20
-1.78676083053
 30
0.0
 41
1.0
 10
-15.4293239715352
 20
-1.80379446108758
 30
0.0
 41
1.0
 10
-15.3781256528457
 20
-1.82036659784808
 30
0.0
 41
1.0
 10
-15.3269008539246
 20
-1.83647821893213
 30
0.0
 41
1.0
 10
-15.2756514925171
 20
-1.8521300748788
 30
0.0
 41
1.0
 10
-15.2243796760436
 20
-1.86731988854564
 30
0.0
 41
1.0
 10
-15.1730878245483
 20
-1.88203989327388
 30
0.0
 41
1.0
 10
-15.1217788610528
 20
-1.89627297312156
 30
0.0
 41
1.0
 10
-15.0704561536318
 20
-1.90999397584266
 30
0.0
 41
1.0
 10
-15.0191231648786
 20
-1.92317712573035
 30
0.0
 41
1.0
 10
-14.967783146808
 20
-1.93580248772505
 30
0.0
 41
1.0
 10
-14.9164388806956
 20
-1.94786152134633
 30
0.0
 41
1.0
 10
-14.8650922421832
 20
-1.95936622843625
 30
0.0
 41
1.0
 10
-14.8137444506773
 20
-1.97034424319341
 30
0.0
 41
1.0
 10
-14.7623969421309
 20
-1.98082112687549
 30
0.0
 41
1.0
 10
-14.711052139464
 20
-1.99080474995765
 30
0.0
 41
1.0
 10
-14.6597141164522
 20
-2.0002719183401
 30
0.0
 41
1.0
 10
-14.6083896793345
 20
-2.00914629597693
 30
0.0
 41
1.0
 10
-14.5570876226576
 20
-2.01731442062386
 30
0.0
 41
1.0
 10
-14.5058168458364
 20
-2.0246657018613
 30
0.0
 41
1.0
 10
-14.454584643907
 20
-2.03112839261881
 30
0.0
 41
1.0
 10
-14.4033952917561
 20
-2.03670035421461
 30
0.0
 41
1.0
 10
-14.3522475692753
 20
-2.04149965126194
 30
0.0
 41
1.0
 10
-14.3011379744026
 20
-2.0457079185261
 30
0.0
 41
1.0
 10
-14.2500661151694
 20
-2.04947225043192
 30
0.0
 41
1.0
 10
-14.199039651832
 20
-2.05281635564806
 30
0.0
 41
1.0
 10
-14.1480788662636
 20
-2.0555570530445
 30
0.0
 41
1.0
 10
-14.0972228990995
 20
-2.05719374853789
 30
0.0
 41
1.0
 10
-14.0465212645082
 20
-2.057039212566
 30
0.0
 41
1.0
 10
-14.0061224013745
 20
-2.054923317071661
 30
0.0
 41
1.0
 10
-13.975931600121
 20
-2.05196744376108
 30
0.0
 41
1.0
 10
-13.9558546936855
 20
-2.04935667478723
 30
0.0
 41
1.0
 10
-13.9458288142221
 20
-2.0478912410813
 30
0.0
 41
1.0
  0
LINE
  5
1000007D
102
{ACAD_XDICTIONARY
360
1000007E
102
}
330
1F
100
AcDbEntity
  8
VISIBLE
100
AcDbLine
 10
-13.9458288142221
 20
-2.0478912410813
 30
0.0
 11
-12.2800109902463
 21
-1.80440680701115
 31
0.0
  0
ARC
  5
10000081
102
{ACAD_XDICTIONARY
360
10000082
102
}
330
1F
100
AcDbEntity
  8
VISIBLE
100
AcDbCircle
 10
-12.211746418123
 20
-2.27144422327757
 30
0.0
 40
0.472
100
AcDbArc
 50
10.53687727199396
 51
98.31575724491465
  0
ARC
  5
10000087
102
{ACAD_XDICTIONARY
360
10000088
102
}
330
1F
100
AcDbEntity
  8
VISIBLE
100
AcDbCircle
 10
0.0
 20
0.0
 30
0.0
 40
11.9492
100
AcDbArc
 50
190.5368772719954
 51
199.4631227280047
  0
ARC
  5
1000008D
102
{ACAD_XDICTIONARY
360
1000008E
102
}
330
1F
100
AcDbEntity
  8
VISIBLE
100
AcDbCircle
 10
-11.7114047343069
 20
-4.13874480842369
 30
0.0
 40
0.472
100
AcDbArc
 50
291.6842427550772
 51
19.46312272800234
  0
LINE
  5
10000093
102
{ACAD_XDICTIONARY
360
10000094
102
}
330
1F
100
AcDbEntity
  8
VISIBLE
100
AcDbLine
 10
-11.537004879811
 20
-4.57734336148994
 30
0.0
 11
-13.101387650486
 21
-5.199388568147
 31
0.0
  0
SPLINE
  5
10000097
102
{ACAD_XDICTIONARY
360
10000098
102
}
330
1F
100
AcDbEntity
  8
VISIBLE
100
AcDbSpline
210
0.0
220
0.0
230
1.0
 70
    12
 71
     5
 72
    81
 73
    75
 74
     0
 42
0.0000000001
 43
0.00000001
 40
0.0
 40
0.0
 40
0.0
 40
0.0
 40
0.0
 40
0.0
 40
0.0142857142857143
 40
0.0285714285714286
 40
0.0428571428571429
 40
0.0571428571428571
 40
0.0714285714285714
 40
0.0857142857142857
 40
0.1
 40
0.114285714285714
 40
0.128571428571429
 40
0.142857142857143
 40
0.157142857142857
 40
0.171428571428571
 40
0.185714285714286
 40
0.2
 40
0.214285714285714
 40
0.228571428571429
 40
0.242857142857143
 40
0.257142857142857
 40
0.271428571428571
 40
0.285714285714286
 40
0.3
 40
0.314285714285714
 40
0.328571428571429
 40
0.342857142857143
 40
0.357142857142857
 40
0.371428571428571
 40
0.385714285714286
 40
0.4
 40
0.414285714285714
 40
0.428571428571429
 40
0.442857142857143
 40
0.457142857142857
 40
0.471428571428572
 40
0.485714285714286
 40
0.5
 40
0.514285714285714
 40
0.528571428571429
 40
0.542857142857143
 40
0.5571428571428569
 40
0.571428571428571
 40
0.585714285714286
 40
0.6
 40
0.614285714285714
 40
0.628571428571428
 40
0.642857142857142
 40
0.6571428571428569
 40
0.6714285714285709
 40
0.6857142857142849
 40
0.7
 40
0.714285714285714
 40
0.728571428571428
 40
0.742857142857142
 40
0.7571428571428559
 40
0.7714285714285709
 40
0.7857142857142849
 40
0.8
 40
0.8142857142857131
 40
0.8285714285714281
 40
0.842857142857142
 40
0.857142857142856
 40
0.87142857142857
 40
0.885714285714284
 40
0.9
 40
0.914285714285713
 40
0.928571428571427
 40
0.9428571428571411
 40
0.957142857142856
 40
0.97142857142857
 40
0.985714285714284
 40
1.0
 40
1.0
 40
1.0
 40
1.0
 40
1.0
 40
1.0
 10
-13.101387650486
 20
-5.199388568147
 30
0.0
 41
1.0
 10
-13.1108030336495
 20
-5.20313240506178
 30
0.0
 41
1.0
 10
-13.129495529139
 20
-5.21090986602477
 30
0.0
 41
1.0
 10
-13.1571194666405
 20
-5.22344540527423
 30
0.0
 41
1.0
 10
-13.1931638561455
 20
-5.24181241759123
 30
0.0
 41
1.0
 10
-13.2371500277008
 20
-5.26702940280938
 30
0.0
 41
1.0
 10
-13.2803742394523
 20
-5.293874806266991
 30
0.0
 41
1.0
 10
-13.3231372256531
 20
-5.321728712620611
 30
0.0
 41
1.0
 10
-13.3656553865605
 20
-5.35013802435941
 30
0.0
 41
1.0
 10
-13.408002748122
 20
-5.37893396103472
 30
0.0
 41
1.0
 10
-13.4501608220269
 20
-5.40813322482774
 30
0.0
 41
1.0
 10
-13.4920564005173
 20
-5.437863399231441
 30
0.0
 41
1.0
 10
-13.5336016990853
 20
-5.468283535597769
 30
0.0
 41
1.0
 10
-13.5747387420693
 20
-5.49949649093528
 30
0.0
 41
1.0
 10
-13.6154648966494
 20
-5.53149827564783
 30
0.0
 41
1.0
 10
-13.6558097186746
 20
-5.56422310743184
 30
0.0
 41
1.0
 10
-13.695820796235
 20
-5.59757076246696
 30
0.0
 41
1.0
 10
-13.7355472441521
 20
-5.63143858229395
 30
0.0
 41
1.0
 10
-13.7750213360728
 20
-5.66575705483833
 30
0.0
 41
1.0
 10
-13.814251141054
 20
-5.70050405653275
 30
0.0
 41
1.0
 10
-13.8532306255478
 20
-5.73568519194851
 30
0.0
 41
1.0
 10
-13.8919457653534
 20
-5.77132187980766
 30
0.0
 41
1.0
 10
-13.9303816873349
 20
-5.807437442325
 30
0.0
 41
1.0
 10
-13.9685307662174
 20
-5.844041335579679
 30
0.0
 41
1.0
 10
-14.006394863586
 20
-5.88112477266093
 30
0.0
 41
1.0
 10
-14.043981130643
 20
-5.91866886329326
 30
0.0
 41
1.0
 10
-14.0812994565481
 20
-5.95664955376322
 30
0.0
 41
1.0
 10
-14.118359500586
 20
-5.995043377549329
 30
0.0
 41
1.0
 10
-14.1551672893169
 20
-6.03383405030034
 30
0.0
 41
1.0
 10
-14.1917246102502
 20
-6.07301363587029
 30
0.0
 41
1.0
 10
-14.2280307768776
 20
-6.112579108485781
 30
0.0
 41
1.0
 10
-14.2640837531135
 20
-6.1525301592601
 30
0.0
 41
1.0
 10
-14.2998814331683
 20
-6.19286670185148
 30
0.0
 41
1.0
 10
-14.335423123584
 20
-6.23358598538912
 30
0.0
 41
1.0
 10
-14.3707097419381
 20
-6.27468220333836
 30
0.0
 41
1.0
 10
-14.4057430880917
 20
-6.31614790608495
 30
0.0
 41
1.0
 10
-14.4405253759541
 20
-6.3579749079564
 30
0.0
 41
1.0
 10
-14.4750587050833
 20
-6.40015531137992
 30
0.0
 41
1.0
 10
-14.509344448499
 20
-6.442682695999809
 30
0.0
 41
1.0
 10
-14.5433831871967
 20
-6.4855522400731
 30
0.0
 41
1.0
 10
-14.5771750206388
 20
-6.52876010820249
 30
0.0
 41
1.0
 10
-14.6107197733969
 20
-6.57230304244784
 30
0.0
 41
1.0
 10
-14.6440172265288
 20
-6.616177906552791
 30
0.0
 41
1.0
 10
-14.6770673885979
 20
-6.660381151940951
 30
0.0
 41
1.0
 10
-14.7098705345915
 20
-6.70490874436112
 30
0.0
 41
1.0
 10
-14.7424270764881
 20
-6.74975642404153
 30
0.0
 41
1.0
 10
-14.7747374827111
 20
-6.79491987112085
 30
0.0
 41
1.0
 10
-14.806802186533
 20
-6.84039489131793
 30
0.0
 41
1.0
 10
-14.8386214832332
 20
-6.88617763104895
 30
0.0
 41
1.0
 10
-14.8701955088218
 20
-6.93226460795425
 30
0.0
 41
1.0
 10
-14.9015242895373
 20
-6.978652583969721
 30
0.0
 41
1.0
 10
-14.9326077735464
 20
-7.02533847786691
 30
0.0
 41
1.0
 10
-14.9634458691181
 20
-7.07231926891271
 30
0.0
 41
1.0
 10
-14.9940384879663
 20
-7.11959187945288
 30
0.0
 41
1.0
 10
-15.0243855640338
 20
-7.167153152548881
 30
0.0
 41
1.0
 10
-15.0544870434844
 20
-7.21499993314816
 30
0.0
 41
1.0
 10
-15.0843428848028
 20
-7.26312912258864
 30
0.0
 41
1.0
 10
-15.1139530551018
 20
-7.311537735153199
 30
0.0
 41
1.0
 10
-15.1433175334631
 20
-7.36022296819385
 30
0.0
 41
1.0
 10
-15.1724363006031
 20
-7.40918220680038
 30
0.0
 41
1.0
 10
-15.2013093094333
 20
-7.45841292838025
 30
0.0
 41
1.0
 10
-15.2299364600841
 20
-7.50791262542215
 30
0.0
 41
1.0
 10
-15.2583175782325
 20
-7.55767872775187
 30
0.0
 41
1.0
 10
-15.2864523857179
 20
-7.607708502021611
 30
0.0
 41
1.0
 10
-15.3143405019761
 20
-7.65799902621549
 30
0.0
 41
1.0
 10
-15.341981521441
 20
-7.7085473606802
 30
0.0
 41
1.0
 10
-15.3693750795526
 20
-7.75935068162071
 30
0.0
 41
1.0
 10
-15.3965209216254
 20
-7.81040642387693
 30
0.0
 41
1.0
 10
-15.4234189806667
 20
-7.86171242719676
 30
0.0
 41
1.0
 10
-15.450069429066
 20
-7.913267052765391
 30
0.0
 41
1.0
 10
-15.4764725666743
 20
-7.965069116093122
 30
0.0
 41
1.0
 10
-15.4973974973529
 20
-8.00670809611013
 30
0.0
 41
1.0
 10
-15.5129801811666
 20
-8.038048138514698
 30
0.0
 41
1.0
 10
-15.5233193138114
 20
-8.058990731512171
 30
0.0
 41
1.0
 10
-15.5284765493246
 20
-8.069474335858299
 30
0.0
 41
1.0
  0
ARC
  5
1000009B
102
{ACAD_XDICTIONARY
360
1000009C
102
}
330
1F
100
AcDbEntity
  8
VISIBLE
100
AcDbCircle
 10
-0.0000000000001558
 20
-0.0000000000000899
 30
0.0
 40
17.5
100
AcDbArc
 50
207.4589390306315
 51
212.5410609693685
  0
SPLINE
  5
100000A1
102
{ACAD_XDICTIONARY
360
100000A2
102
}
330
1F
100
AcDbEntity
  8
VISIBLE
100
AcDbSpline
210
0.0
220
0.0
230
1.0
 70
    12
 71
     5
 72
    81
 73
    75
 74
     0
 42
0.0000000001
 43
0.00000001
 40
-1.0
 40
-1.0
 40
-1.0
 40
-1.0
 40
-1.0
 40
-1.0
 40
-0.985714285714284
 40
-0.97142857142857
 40
-0.957142857142856
 40
-0.9428571428571411
 40
-0.928571428571427
 40
-0.914285714285713
 40
-0.9
 40
-0.885714285714284
 40
-0.87142857142857
 40
-0.857142857142856
 40
-0.842857142857142
 40
-0.8285714285714281
 40
-0.8142857142857131
 40
-0.8
 40
-0.7857142857142849
 40
-0.7714285714285709
 40
-0.7571428571428559
 40
-0.742857142857142
 40
-0.728571428571428
 40
-0.714285714285714
 40
-0.7
 40
-0.6857142857142849
 40
-0.6714285714285709
 40
-0.6571428571428569
 40
-0.642857142857142
 40
-0.628571428571428
 40
-0.614285714285714
 40
-0.6
 40
-0.585714285714286
 40
-0.571428571428571
 40
-0.5571428571428569
 40
-0.542857142857143
 40
-0.528571428571429
 40
-0.514285714285714
 40
-0.5
 40
-0.485714285714286
 40
-0.471428571428572
 40
-0.457142857142857
 40
-0.442857142857143
 40
-0.428571428571429
 40
-0.414285714285714
 40
-0.4
 40
-0.385714285714286
 40
-0.371428571428571
 40
-0.357142857142857
 40
-0.342857142857143
 40
-0.328571428571429
 40
-0.314285714285714
 40
-0.3
 40
-0.285714285714286
 40
-0.271428571428571
 40
-0.257142857142857
 40
-0.242857142857143
 40
-0.228571428571429
 40
-0.214285714285714
 40
-0.2
 40
-0.185714285714286
 40
-0.171428571428571
 40
-0.157142857142857
 40
-0.142857142857143
 40
-0.128571428571429
 40
-0.114285714285714
 40
-0.1
 40
-0.0857142857142857
 40
-0.0714285714285714
 40
-0.0571428571428571
 40
-0.0428571428571429
 40
-0.0285714285714286
 40
-0.0142857142857143
 40
0.0
 40
0.0
 40
0.0
 40
0.0
 40
0.0
 40
0.0
 10
-14.7526080447022
 20
-9.41331800585688
 30
0.0
 41
1.0
 10
-14.7409503592586
 20
-9.414093511062191
 30
0.0
 41
1.0
 10
-14.7176439753793
 20
-9.41561085603747
 30
0.0
 41
1.0
 10
-14.6827113605944
 20
-9.417785877197911
 30
0.0
 41
1.0
 10
-14.6361884807726
 20
-9.4204838456663
 30
0.0
 41
1.0
 10
-14.5781250091583
 20
-9.423519089421818
 30
0.0
 41
1.0
 10
-14.5201521695336
 20
-9.426216436870071
 30
0.0
 41
1.0
 10
-14.4622708377713
 20
-9.428575036087711
 30
0.0
 41
1.0
 10
-14.4044823469319
 20
-9.43059391837368
 30
0.0
 41
1.0
 10
-14.3467886013451
 20
-9.43227206161925
 30
0.0
 41
1.0
 10
-14.2891919498472
 20
-9.43360840380851
 30
0.0
 41
1.0
 10
-14.2316950201965
 20
-9.43460184876214
 30
0.0
 41
1.0
 10
-14.1743005609907
 20
-9.43525127788411
 30
0.0
 41
1.0
 10
-14.1170112930516
 20
-9.4355555597446
 30
0.0
 41
1.0
 10
-14.0598297226082
 20
-9.435513568564012
 30
0.0
 41
1.0
 10
-14.0027581626583
 20
-9.4351241702233
 30
0.0
 41
1.0
 10
-13.9457988347051
 20
-9.43438619745643
 30
0.0
 41
1.0
 10
-13.8889539469221
 20
-9.43329842974695
 30
0.0
 41
1.0
 10
-13.8322257735297
 20
-9.43185957633994
 30
0.0
 41
1.0
 10
-13.7756167521516
 20
-9.43006825402712
 30
0.0
 41
1.0
 10
-13.719129484938
 20
-9.42792299843101
 30
0.0
 41
1.0
 10
-13.6627666761667
 20
-9.425422296173961
 30
0.0
 41
1.0
 10
-13.6065310851117
 20
-9.422564616353249
 30
0.0
 41
1.0
 10
-13.5504254787902
 20
-9.419348437706681
 30
0.0
 41
1.0
 10
-13.4944525666723
 20
-9.41577229786528
 30
0.0
 41
1.0
 10
-13.4386150106551
 20
-9.411834765903839
 30
0.0
 41
1.0
 10
-13.3829155050772
 20
-9.40753434609704
 30
0.0
 41
1.0
 10
-13.3273568410651
 20
-9.40286939668954
 30
0.0
 41
1.0
 10
-13.2719419664259
 20
-9.39783805871351
 30
0.0
 41
1.0
 10
-13.2166740708212
 20
-9.39243814965751
 30
0.0
 41
1.0
 10
-13.1615565699689
 20
-9.38666719715584
 30
0.0
 41
1.0
 10
-13.1065929707669
 20
-9.38052263561145
 30
0.0
 41
1.0
 10
-13.0517867562965
 20
-9.37400197835449
 30
0.0
 41
1.0
 10
-12.997141282828
 20
-9.367102970113418
 30
0.0
 41
1.0
 10
-12.9426596192372
 20
-9.359823829183911
 30
0.0
 41
1.0
 10
-12.8883445910727
 20
-9.3521631770473
 30
0.0
 41
1.0
 10
-12.8341991075077
 20
-9.34411953665893
 30
0.0
 41
1.0
 10
-12.7802264403625
 20
-9.33569090418321
 30
0.0
 41
1.0
 10
-12.7264304748913
 20
-9.32687436559187
 30
0.0
 41
1.0
 10
-12.6728160847753
 20
-9.31766552163699
 30
0.0
 41
1.0
 10
-12.6193890597342
 20
-9.308058605261731
 30
0.0
 41
1.0
 10
-12.5661553818136
 20
-9.29804760632805
 30
0.0
 41
1.0
 10
-12.5131206026383
 20
-9.287627241303401
 30
0.0
 41
1.0
 10
-12.4602892920259
 20
-9.27679381227511
 30
0.0
 41
1.0
 10
-12.4076641790295
 20
-9.26554654435996
 30
0.0
 41
1.0
 10
-12.3552463913181
 20
-9.253887218054341
 30
0.0
 41
1.0
 10
-12.3030372144381
 20
-9.24181744221677
 30
0.0
 41
1.0
 10
-12.2510396120404
 20
-9.229336298494228
 30
0.0
 41
1.0
 10
-12.1992595632743
 20
-9.21643827078509
 30
0.0
 41
1.0
 10
-12.1477081575214
 20
-9.203109997759489
 30
0.0
 41
1.0
 10
-12.0964008877434
 20
-9.189331380970911
 30
0.0
 41
1.0
 10
-12.045353640487
 20
-9.17508182929893
 30
0.0
 41
1.0
 10
-11.9945791996098
 20
-9.160345704483008
 30
0.0
 41
1.0
 10
-11.9440842440071
 20
-9.14511700088791
 30
0.0
 41
1.0
 10
-11.8938643971115
 20
-9.12940705023471
 30
0.0
 41
1.0
 10
-11.8439068978606
 20
-9.113240394144588
 30
0.0
 41
1.0
 10
-11.7942002091973
 20
-9.09663988729252
 30
0.0
 41
1.0
 10
-11.7447424941944
 20
-9.07961355717006
 30
0.0
 41
1.0
 10
-11.6955488778949
 20
-9.06214335398527
 30
0.0
 41
1.0
 10
-11.6466634226977
 20
-9.04416657190271
 30
0.0
 41
1.0
 10
-11.5981504760255
 20
-9.025589347009719
 30
0.0
 41
1.0
 10
-11.550073040208
 20
-9.00632035490115
 30
0.0
 41
1.0
 10
-11.5024733064665
 20
-8.98630110830925
 30
0.0
 41
1.0
 10
-11.4553560463027
 20
-8.96553189252468
 30
0.0
 41
1.0
 10
-11.4086611707649
 20
-8.94411434444757
 30
0.0
 41
1.0
 10
-11.3622948295959
 20
-8.922204013367889
 30
0.0
 41
1.0
 10
-11.3161831361286
 20
-8.89992809081003
 30
0.0
 41
1.0
 10
-11.2703208700051
 20
-8.87731093921143
 30
0.0
 41
1.0
 10
-11.2248171864078
 20
-8.854204059996631
 30
0.0
 41
1.0
 10
-11.1799562791629
 20
-8.83019349629008
 30
0.0
 41
1.0
 10
-11.1361246435795
 20
-8.804708846917011
 30
0.0
 41
1.0
 10
-11.1021961495688
 20
-8.78267699610031
 30
0.0
 41
1.0
 10
-11.0775280853779
 20
-8.76502173409619
 30
0.0
 41
1.0
 10
-11.0614463588623
 20
-8.75272228862367
 30
0.0
 41
1.0
 10
-11.0534964094047
 20
-8.746440246075101
 30
0.0
 41
1.0
  0
LINE
  5
100000A5
102
{ACAD_XDICTIONARY
360
100000A6
102
}
330
1F
100
AcDbEntity
  8
VISIBLE
100
AcDbLine
 10
-11.0534964094047
 20
-8.746440246075101
 30
0.0
 11
-9.73259807279985
 21
-7.7026676287564
 31
0.0
  0
ARC
  5
100000A9
102
{ACAD_XDICTIONARY
360
100000AA
102
}
330
1F
100
AcDbEntity
  8
VISIBLE
100
AcDbCircle
 10
-9.43996051102932
 20
-8.07300160969927
 30
0.0
 40
0.472
100
AcDbArc
 50
40.5368772719953
 51
128.3157572449249
  0
ARC
  5
100000AF
102
{ACAD_XDICTIONARY
360
100000B0
102
}
330
1F
100
AcDbEntity
  8
VISIBLE
100
AcDbCircle
 10
0.0
 20
0.0
 30
0.0
 40
11.9492
100
AcDbArc
 50
220.5368772719954
 51
229.4631227280046
  0
ARC
  5
100000B5
102
{ACAD_XDICTIONARY
360
100000B6
102
}
330
1F
100
AcDbEntity
  8
VISIBLE
100
AcDbCircle
 10
-8.07300160969927
 20
-9.43996051102932
 30
0.0
 40
0.472
100
AcDbArc
 50
321.6842427550752
 51
49.4631227280047
  0
LINE
  5
100000BB
102
{ACAD_XDICTIONARY
360
100000BC
102
}
330
1F
100
AcDbEntity
  8
VISIBLE
100
AcDbLine
 10
-7.7026676287564
 20
-9.73259807279985
 30
0.0
 11
-8.746440246075101
 21
-11.0534964094047
 31
0.0
  0
SPLINE
  5
100000BF
102
{ACAD_XDICTIONARY
360
100000C0
102
}
330
1F
100
AcDbEntity
  8
VISIBLE
100
AcDbSpline
210
0.0
220
0.0
230
1.0
 70
    12
 71
     5
 72
    81
 73
    75
 74
     0
 42
0.0000000001
 43
0.00000001
 40
0.0
 40
0.0
 40
0.0
 40
0.0
 40
0.0
 40
0.0
 40
0.0142857142857143
 40
0.0285714285714286
 40
0.0428571428571429
 40
0.0571428571428571
 40
0.0714285714285714
 40
0.0857142857142857
 40
0.1
 40
0.114285714285714
 40
0.128571428571429
 40
0.142857142857143
 40
0.157142857142857
 40
0.171428571428571
 40
0.185714285714286
 40
0.2
 40
0.214285714285714
 40
0.228571428571429
 40
0.242857142857143
 40
0.257142857142857
 40
0.271428571428571
 40
0.285714285714286
 40
0.3
 40
0.314285714285714
 40
0.328571428571429
 40
0.342857142857143
 40
0.357142857142857
 40
0.371428571428571
 40
0.385714285714286
 40
0.4
 40
0.414285714285714
 40
0.428571428571429
 40
0.442857142857143
 40
0.457142857142857
 40
0.471428571428572
 40
0.485714285714286
 40
0.5
 40
0.514285714285714
 40
0.528571428571429
 40
0.542857142857143
 40
0.5571428571428569
 40
0.571428571428571
 40
0.585714285714286
 40
0.6
 40
0.614285714285714
 40
0.628571428571428
 40
0.642857142857142
 40
0.6571428571428569
 40
0.6714285714285709
 40
0.6857142857142849
 40
0.7
 40
0.714285714285714
 40
0.728571428571428
 40
0.742857142857142
 40
0.7571428571428559
 40
0.7714285714285709
 40
0.7857142857142849
 40
0.8
 40
0.8142857142857131
 40
0.8285714285714281
 40
0.842857142857142
 40
0.857142857142856
 40
0.87142857142857
 40
0.885714285714284
 40
0.9
 40
0.914285714285713
 40
0.928571428571427
 40
0.9428571428571411
 40
0.957142857142856
 40
0.97142857142857
 40
0.985714285714284
 40
1.0
 40
1.0
 40
1.0
 40
1.0
 40
1.0
 40
1.0
 10
-8.746440246075101
 20
-11.0534964094047
 30
0.0
 41
1.0
 10
-8.75272228862367
 20
-11.0614463588623
 30
0.0
 41
1.0
 10
-8.76502173409619
 20
-11.0775280853779
 30
0.0
 41
1.0
 10
-8.78267699610031
 20
-11.1021961495688
 30
0.0
 41
1.0
 10
-8.804708846917011
 20
-11.1361246435795
 30
0.0
 41
1.0
 10
-8.83019349629008
 20
-11.1799562791629
 30
0.0
 41
1.0
 10
-8.854204059996631
 20
-11.2248171864078
 30
0.0
 41
1.0
 10
-8.87731093921144
 20
-11.2703208700051
 30
0.0
 41
1.0
 10
-8.89992809081003
 20
-11.3161831361286
 30
0.0
 41
1.0
 10
-8.922204013367889
 20
-11.3622948295959
 30
0.0
 41
1.0
 10
-8.94411434444757
 20
-11.4086611707649
 30
0.0
 41
1.0
 10
-8.96553189252468
 20
-11.4553560463027
 30
0.0
 41
1.0
 10
-8.98630110830926
 20
-11.5024733064665
 30
0.0
 41
1.0
 10
-9.006320354901158
 20
-11.550073040208
 30
0.0
 41
1.0
 10
-9.02558934700973
 20
-11.5981504760255
 30
0.0
 41
1.0
 10
-9.04416657190271
 20
-11.6466634226977
 30
0.0
 41
1.0
 10
-9.062143353985281
 20
-11.6955488778949
 30
0.0
 41
1.0
 10
-9.07961355717006
 20
-11.7447424941944
 30
0.0
 41
1.0
 10
-9.09663988729252
 20
-11.7942002091973
 30
0.0
 41
1.0
 10
-9.113240394144588
 20
-11.8439068978606
 30
0.0
 41
1.0
 10
-9.12940705023471
 20
-11.8938643971115
 30
0.0
 41
1.0
 10
-9.14511700088791
 20
-11.9440842440071
 30
0.0
 41
1.0
 10
-9.160345704483019
 20
-11.9945791996098
 30
0.0
 41
1.0
 10
-9.17508182929893
 20
-12.045353640487
 30
0.0
 41
1.0
 10
-9.189331380970911
 20
-12.0964008877434
 30
0.0
 41
1.0
 10
-9.2031099977595
 20
-12.1477081575214
 30
0.0
 41
1.0
 10
-9.21643827078509
 20
-12.1992595632743
 30
0.0
 41
1.0
 10
-9.229336298494239
 20
-12.2510396120404
 30
0.0
 41
1.0
 10
-9.24181744221678
 20
-12.3030372144381
 30
0.0
 41
1.0
 10
-9.253887218054341
 20
-12.3552463913181
 30
0.0
 41
1.0
 10
-9.26554654435996
 20
-12.4076641790295
 30
0.0
 41
1.0
 10
-9.27679381227511
 20
-12.4602892920259
 30
0.0
 41
1.0
 10
-9.287627241303401
 20
-12.5131206026383
 30
0.0
 41
1.0
 10
-9.29804760632805
 20
-12.5661553818136
 30
0.0
 41
1.0
 10
-9.30805860526174
 20
-12.6193890597342
 30
0.0
 41
1.0
 10
-9.317665521637
 20
-12.6728160847753
 30
0.0
 41
1.0
 10
-9.326874365591879
 20
-12.7264304748913
 30
0.0
 41
1.0
 10
-9.33569090418322
 20
-12.7802264403625
 30
0.0
 41
1.0
 10
-9.34411953665894
 20
-12.8341991075077
 30
0.0
 41
1.0
 10
-9.3521631770473
 20
-12.8883445910727
 30
0.0
 41
1.0
 10
-9.359823829183918
 20
-12.9426596192372
 30
0.0
 41
1.0
 10
-9.367102970113429
 20
-12.997141282828
 30
0.0
 41
1.0
 10
-9.3740019783545
 20
-13.0517867562965
 30
0.0
 41
1.0
 10
-9.38052263561145
 20
-13.1065929707669
 30
0.0
 41
1.0
 10
-9.38666719715584
 20
-13.1615565699689
 30
0.0
 41
1.0
 10
-9.39243814965751
 20
-13.2166740708212
 30
0.0
 41
1.0
 10
-9.39783805871351
 20
-13.2719419664259
 30
0.0
 41
1.0
 10
-9.40286939668954
 20
-13.3273568410651
 30
0.0
 41
1.0
 10
-9.40753434609704
 20
-13.3829155050772
 30
0.0
 41
1.0
 10
-9.411834765903839
 20
-13.4386150106551
 30
0.0
 41
1.0
 10
-9.41577229786528
 20
-13.4944525666723
 30
0.0
 41
1.0
 10
-9.41934843770669
 20
-13.5504254787902
 30
0.0
 41
1.0
 10
-9.422564616353249
 20
-13.6065310851117
 30
0.0
 41
1.0
 10
-9.425422296173961
 20
-13.6627666761667
 30
0.0
 41
1.0
 10
-9.42792299843102
 20
-13.719129484938
 30
0.0
 41
1.0
 10
-9.430068254027129
 20
-13.7756167521516
 30
0.0
 41
1.0
 10
-9.43185957633994
 20
-13.8322257735297
 30
0.0
 41
1.0
 10
-9.43329842974696
 20
-13.8889539469221
 30
0.0
 41
1.0
 10
-9.43438619745643
 20
-13.9457988347051
 30
0.0
 41
1.0
 10
-9.43512417022331
 20
-14.0027581626583
 30
0.0
 41
1.0
 10
-9.435513568564012
 20
-14.0598297226082
 30
0.0
 41
1.0
 10
-9.43555555974461
 20
-14.1170112930516
 30
0.0
 41
1.0
 10
-9.43525127788411
 20
-14.1743005609906
 30
0.0
 41
1.0
 10
-9.43460184876214
 20
-14.2316950201965
 30
0.0
 41
1.0
 10
-9.43360840380851
 20
-14.2891919498472
 30
0.0
 41
1.0
 10
-9.43227206161925
 20
-14.346788601345
 30
0.0
 41
1.0
 10
-9.43059391837368
 20
-14.4044823469319
 30
0.0
 41
1.0
 10
-9.428575036087711
 20
-14.4622708377713
 30
0.0
 41
1.0
 10
-9.426216436870071
 20
-14.5201521695336
 30
0.0
 41
1.0
 10
-9.423519089421829
 20
-14.5781250091583
 30
0.0
 41
1.0
 10
-9.4204838456663
 20
-14.6361884807726
 30
0.0
 41
1.0
 10
-9.417785877197911
 20
-14.6827113605944
 30
0.0
 41
1.0
 10
-9.41561085603747
 20
-14.7176439753793
 30
0.0
 41
1.0
 10
-9.414093511062202
 20
-14.7409503592586
 30
0.0
 41
1.0
 10
-9.41331800585689
 20
-14.7526080447022
 30
0.0
 41
1.0
  0
ARC
  5
100000C3
102
{ACAD_XDICTIONARY
360
100000C4
102
}
330
1F
100
AcDbEntity
  8
VISIBLE
100
AcDbCircle
 10
-0.0000000000000899
 20
-0.0000000000001558
 30
0.0
 40
17.5
100
AcDbArc
 50
237.4589390306315
 51
242.5410609693684
  0
SPLINE
  5
100000C9
102
{ACAD_XDICTIONARY
360
100000CA
102
}
330
1F
100
AcDbEntity
  8
VISIBLE
100
AcDbSpline
210
0.0
220
0.0
230
1.0
 70
    12
 71
     5
 72
    81
 73
    75
 74
     0
 42
0.0000000001
 43
0.00000001
 40
-1.0
 40
-1.0
 40
-1.0
 40
-1.0
 40
-1.0
 40
-1.0
 40
-0.985714285714284
 40
-0.97142857142857
 40
-0.957142857142856
 40
-0.9428571428571411
 40
-0.928571428571427
 40
-0.914285714285713
 40
-0.9
 40
-0.885714285714284
 40
-0.87142857142857
 40
-0.857142857142856
 40
-0.842857142857142
 40
-0.8285714285714281
 40
-0.8142857142857131
 40
-0.8
 40
-0.7857142857142849
 40
-0.7714285714285709
 40
-0.7571428571428559
 40
-0.742857142857142
 40
-0.728571428571428
 40
-0.714285714285714
 40
-0.7
 40
-0.6857142857142849
 40
-0.6714285714285709
 40
-0.6571428571428569
 40
-0.642857142857142
 40
-0.628571428571428
 40
-0.614285714285714
 40
-0.6
 40
-0.585714285714286
 40
-0.571428571428571
 40
-0.5571428571428569
 40
-0.542857142857143
 40
-0.528571428571429
 40
-0.514285714285714
 40
-0.5
 40
-0.485714285714286
 40
-0.471428571428572
 40
-0.457142857142857
 40
-0.442857142857143
 40
-0.428571428571429
 40
-0.414285714285714
 40
-0.4
 40
-0.385714285714286
 40
-0.371428571428571
 40
-0.357142857142857
 40
-0.342857142857143
 40
-0.328571428571429
 40
-0.314285714285714
 40
-0.3
 40
-0.285714285714286
 40
-0.271428571428571
 40
-0.257142857142857
 40
-0.242857142857143
 40
-0.228571428571429
 40
-0.214285714285714
 40
-0.2
 40
-0.185714285714286
 40
-0.171428571428571
 40
-0.157142857142857
 40
-0.142857142857143
 40
-0.128571428571429
 40
-0.114285714285714
 40
-0.1
 40
-0.0857142857142857
 40
-0.0714285714285714
 40
-0.0571428571428571
 40
-0.0428571428571429
 40
-0.0285714285714286
 40
-0.0142857142857143
 40
0.0
 40
0.0
 40
0.0
 40
0.0
 40
0.0
 40
0.0
 10
-8.069474335858299
 20
-15.5284765493246
 30
0.0
 41
1.0
 10
-8.058990731512171
 20
-15.5233193138114
 30
0.0
 41
1.0
 10
-8.038048138514709
 20
-15.5129801811666
 30
0.0
 41
1.0
 10
-8.00670809611014
 20
-15.4973974973529
 30
0.0
 41
1.0
 10
-7.96506911609313
 20
-15.4764725666743
 30
0.0
 41
1.0
 10
-7.913267052765401
 20
-15.450069429066
 30
0.0
 41
1.0
 10
-7.861712427196769
 20
-15.4234189806667
 30
0.0
 41
1.0
 10
-7.81040642387693
 20
-15.3965209216254
 30
0.0
 41
1.0
 10
-7.75935068162071
 20
-15.3693750795526
 30
0.0
 41
1.0
 10
-7.70854736068021
 20
-15.341981521441
 30
0.0
 41
1.0
 10
-7.65799902621549
 20
-15.3143405019761
 30
0.0
 41
1.0
 10
-7.607708502021611
 20
-15.2864523857179
 30
0.0
 41
1.0
 10
-7.55767872775187
 20
-15.2583175782325
 30
0.0
 41
1.0
 10
-7.50791262542215
 20
-15.2299364600841
 30
0.0
 41
1.0
 10
-7.45841292838025
 20
-15.2013093094333
 30
0.0
 41
1.0
 10
-7.409182206800391
 20
-15.1724363006031
 30
0.0
 41
1.0
 10
-7.36022296819386
 20
-15.1433175334631
 30
0.0
 41
1.0
 10
-7.311537735153199
 20
-15.1139530551018
 30
0.0
 41
1.0
 10
-7.26312912258864
 20
-15.0843428848028
 30
0.0
 41
1.0
 10
-7.21499993314817
 20
-15.0544870434844
 30
0.0
 41
1.0
 10
-7.167153152548881
 20
-15.0243855640338
 30
0.0
 41
1.0
 10
-7.11959187945289
 20
-14.9940384879663
 30
0.0
 41
1.0
 10
-7.07231926891271
 20
-14.9634458691181
 30
0.0
 41
1.0
 10
-7.02533847786691
 20
-14.9326077735464
 30
0.0
 41
1.0
 10
-6.978652583969721
 20
-14.9015242895373
 30
0.0
 41
1.0
 10
-6.93226460795425
 20
-14.8701955088218
 30
0.0
 41
1.0
 10
-6.88617763104895
 20
-14.8386214832332
 30
0.0
 41
1.0
 10
-6.84039489131794
 20
-14.806802186533
 30
0.0
 41
1.0
 10
-6.79491987112085
 20
-14.7747374827111
 30
0.0
 41
1.0
 10
-6.74975642404153
 20
-14.7424270764881
 30
0.0
 41
1.0
 10
-6.70490874436112
 20
-14.7098705345915
 30
0.0
 41
1.0
 10
-6.660381151940951
 20
-14.6770673885979
 30
0.0
 41
1.0
 10
-6.616177906552799
 20
-14.6440172265288
 30
0.0
 41
1.0
 10
-6.572303042447849
 20
-14.6107197733969
 30
0.0
 41
1.0
 10
-6.52876010820249
 20
-14.5771750206388
 30
0.0
 41
1.0
 10
-6.48555224007311
 20
-14.5433831871967
 30
0.0
 41
1.0
 10
-6.442682695999809
 20
-14.509344448499
 30
0.0
 41
1.0
 10
-6.40015531137992
 20
-14.4750587050833
 30
0.0
 41
1.0
 10
-6.357974907956409
 20
-14.4405253759541
 30
0.0
 41
1.0
 10
-6.31614790608495
 20
-14.4057430880917
 30
0.0
 41
1.0
 10
-6.27468220333836
 20
-14.3707097419381
 30
0.0
 41
1.0
 10
-6.23358598538912
 20
-14.335423123584
 30
0.0
 41
1.0
 10
-6.19286670185148
 20
-14.2998814331683
 30
0.0
 41
1.0
 10
-6.15253015926011
 20
-14.2640837531135
 30
0.0
 41
1.0
 10
-6.112579108485781
 20
-14.2280307768776
 30
0.0
 41
1.0
 10
-6.073013635870299
 20
-14.1917246102502
 30
0.0
 41
1.0
 10
-6.03383405030034
 20
-14.1551672893169
 30
0.0
 41
1.0
 10
-5.995043377549329
 20
-14.118359500586
 30
0.0
 41
1.0
 10
-5.95664955376322
 20
-14.0812994565481
 30
0.0
 41
1.0
 10
-5.91866886329326
 20
-14.043981130643
 30
0.0
 41
1.0
 10
-5.88112477266093
 20
-14.006394863586
 30
0.0
 41
1.0
 10
-5.84404133557969
 20
-13.9685307662174
 30
0.0
 41
1.0
 10
-5.807437442325011
 20
-13.9303816873349
 30
0.0
 41
1.0
 10
-5.77132187980766
 20
-13.8919457653534
 30
0.0
 41
1.0
 10
-5.73568519194851
 20
-13.8532306255478
 30
0.0
 41
1.0
 10
-5.70050405653275
 20
-13.814251141054
 30
0.0
 41
1.0
 10
-5.66575705483834
 20
-13.7750213360728
 30
0.0
 41
1.0
 10
-5.63143858229395
 20
-13.7355472441521
 30
0.0
 41
1.0
 10
-5.597570762466971
 20
-13.695820796235
 30
0.0
 41
1.0
 10
-5.56422310743184
 20
-13.6558097186746
 30
0.0
 41
1.0
 10
-5.53149827564783
 20
-13.6154648966494
 30
0.0
 41
1.0
 10
-5.49949649093528
 20
-13.5747387420693
 30
0.0
 41
1.0
 10
-5.46828353559778
 20
-13.5336016990853
 30
0.0
 41
1.0
 10
-5.437863399231441
 20
-13.4920564005173
 30
0.0
 41
1.0
 10
-5.40813322482775
 20
-13.4501608220269
 30
0.0
 41
1.0
 10
-5.37893396103472
 20
-13.408002748122
 30
0.0
 41
1.0
 10
-5.35013802435942
 20
-13.3656553865605
 30
0.0
 41
1.0
 10
-5.321728712620611
 20
-13.3231372256531
 30
0.0
 41
1.0
 10
-5.293874806267
 20
-13.2803742394523
 30
0.0
 41
1.0
 10
-5.26702940280938
 20
-13.2371500277008
 30
0.0
 41
1.0
 10
-5.24181241759123
 20
-13.1931638561454
 30
0.0
 41
1.0
 10
-5.22344540527423
 20
-13.1571194666405
 30
0.0
 41
1.0
 10
-5.21090986602477
 20
-13.129495529139
 30
0.0
 41
1.0
 10
-5.20313240506179
 20
-13.1108030336495
 30
0.0
 41
1.0
 10
-5.199388568147009
 20
-13.101387650486
 30
0.0
 41
1.0
  0
LINE
  5
100000CD
102
{ACAD_XDICTIONARY
360
100000CE
102
}
330
1F
100
AcDbEntity
  8
VISIBLE
100
AcDbLine
 10
-5.199388568147
 20
-13.101387650486
 30
0.0
 11
-4.57734336148994
 21
-11.537004879811
 31
0.0
  0
ARC
  5
100000D1
102
{ACAD_XDICTIONARY
360
100000D2
102
}
330
1F
100
AcDbEntity
  8
VISIBLE
100
AcDbCircle
 10
-4.13874480842369
 20
-11.7114047343069
 30
0.0
 40
0.472
100
AcDbArc
 50
70.53687727199767
 51
158.3157572449228
  0
ARC
  5
100000D7
102
{ACAD_XDICTIONARY
360
100000D8
102
}
330
1F
100
AcDbEntity
  8
VISIBLE
100
AcDbCircle
 10
0.0
 20
0.0
 30
0.0
 40
11.9492
100
AcDbArc
 50
250.5368772719953
 51
259.4631227280046
  0
ARC
  5
100000DD
102
{ACAD_XDICTIONARY
360
100000DE
102
}
330
1F
100
AcDbEntity
  8
VISIBLE
100
AcDbCircle
 10
-2.27144422327757
 20
-12.211746418123
 30
0.0
 40
0.472
100
AcDbArc
 50
351.6842427550853
 51
79.4631227280061
  0
LINE
  5
100000E3
102
{ACAD_XDICTIONARY
360
100000E4
102
}
330
1F
100
AcDbEntity
  8
VISIBLE
100
AcDbLine
 10
-1.80440680701115
 20
-12.2800109902463
 30
0.0
 11
-2.0478912410813
 21
-13.9458288142221
 31
0.0
  0
SPLINE
  5
100000E7
102
{ACAD_XDICTIONARY
360
100000E8
102
}
330
1F
100
AcDbEntity
  8
VISIBLE
100
AcDbSpline
210
0.0
220
0.0
230
1.0
 70
    12
 71
     5
 72
    81
 73
    75
 74
     0
 42
0.0000000001
 43
0.00000001
 40
0.0
 40
0.0
 40
0.0
 40
0.0
 40
0.0
 40
0.0
 40
0.0142857142857143
 40
0.0285714285714286
 40
0.0428571428571429
 40
0.0571428571428571
 40
0.0714285714285714
 40
0.0857142857142857
 40
0.1
 40
0.114285714285714
 40
0.128571428571429
 40
0.142857142857143
 40
0.157142857142857
 40
0.171428571428571
 40
0.185714285714286
 40
0.2
 40
0.214285714285714
 40
0.228571428571429
 40
0.242857142857143
 40
0.257142857142857
 40
0.271428571428571
 40
0.285714285714286
 40
0.3
 40
0.314285714285714
 40
0.328571428571429
 40
0.342857142857143
 40
0.357142857142857
 40
0.371428571428571
 40
0.385714285714286
 40
0.4
 40
0.414285714285714
 40
0.428571428571429
 40
0.442857142857143
 40
0.457142857142857
 40
0.471428571428572
 40
0.485714285714286
 40
0.5
 40
0.514285714285714
 40
0.528571428571429
 40
0.542857142857143
 40
0.5571428571428569
 40
0.571428571428571
 40
0.585714285714286
 40
0.6
 40
0.614285714285714
 40
0.628571428571428
 40
0.642857142857142
 40
0.6571428571428569
 40
0.6714285714285709
 40
0.6857142857142849
 40
0.7
 40
0.714285714285714
 40
0.728571428571428
 40
0.742857142857142
 40
0.7571428571428559
 40
0.7714285714285709
 40
0.7857142857142849
 40
0.8
 40
0.8142857142857131
 40
0.8285714285714281
 40
0.842857142857142
 40
0.857142857142856
 40
0.87142857142857
 40
0.885714285714284
 40
0.9
 40
0.914285714285713
 40
0.928571428571427
 40
0.9428571428571411
 40
0.957142857142856
 40
0.97142857142857
 40
0.985714285714284
 40
1.0
 40
1.0
 40
1.0
 40
1.0
 40
1.0
 40
1.0
 10
-2.0478912410813
 20
-13.9458288142221
 30
0.0
 41
1.0
 10
-2.04935667478723
 20
-13.9558546936855
 30
0.0
 41
1.0
 10
-2.05196744376108
 20
-13.975931600121
 30
0.0
 41
1.0
 10
-2.054923317071661
 20
-14.0061224013745
 30
0.0
 41
1.0
 10
-2.057039212566
 20
-14.0465212645082
 30
0.0
 41
1.0
 10
-2.05719374853789
 20
-14.0972228990995
 30
0.0
 41
1.0
 10
-2.05555705304451
 20
-14.1480788662636
 30
0.0
 41
1.0
 10
-2.05281635564806
 20
-14.199039651832
 30
0.0
 41
1.0
 10
-2.04947225043193
 20
-14.2500661151694
 30
0.0
 41
1.0
 10
-2.0457079185261
 20
-14.3011379744026
 30
0.0
 41
1.0
 10
-2.04149965126194
 20
-14.3522475692753
 30
0.0
 41
1.0
 10
-2.03670035421462
 20
-14.4033952917561
 30
0.0
 41
1.0
 10
-2.03112839261881
 20
-14.454584643907
 30
0.0
 41
1.0
 10
-2.0246657018613
 20
-14.5058168458364
 30
0.0
 41
1.0
 10
-2.01731442062386
 20
-14.5570876226576
 30
0.0
 41
1.0
 10
-2.00914629597694
 20
-14.6083896793345
 30
0.0
 41
1.0
 10
-2.0002719183401
 20
-14.6597141164522
 30
0.0
 41
1.0
 10
-1.99080474995765
 20
-14.711052139464
 30
0.0
 41
1.0
 10
-1.98082112687549
 20
-14.7623969421309
 30
0.0
 41
1.0
 10
-1.97034424319341
 20
-14.8137444506773
 30
0.0
 41
1.0
 10
-1.95936622843625
 20
-14.8650922421832
 30
0.0
 41
1.0
 10
-1.94786152134633
 20
-14.9164388806956
 30
0.0
 41
1.0
 10
-1.93580248772505
 20
-14.967783146808
 30
0.0
 41
1.0
 10
-1.92317712573035
 20
-15.0191231648786
 30
0.0
 41
1.0
 10
-1.90999397584267
 20
-15.0704561536318
 30
0.0
 41
1.0
 10
-1.89627297312156
 20
-15.1217788610528
 30
0.0
 41
1.0
 10
-1.88203989327388
 20
-15.1730878245483
 30
0.0
 41
1.0
 10
-1.86731988854564
 20
-15.2243796760436
 30
0.0
 41
1.0
 10
-1.8521300748788
 20
-15.2756514925171
 30
0.0
 41
1.0
 10
-1.83647821893213
 20
-15.3269008539246
 30
0.0
 41
1.0
 10
-1.82036659784808
 20
-15.3781256528457
 30
0.0
 41
1.0
 10
-1.80379446108758
 20
-15.4293239715352
 30
0.0
 41
1.0
 10
-1.78676083053
 20
-15.4804939431549
 30
0.0
 41
1.0
 10
-1.76926774177037
 20
-15.5316335917172
 30
0.0
 41
1.0
 10
-1.75132068220392
 20
-15.5827408086001
 30
0.0
 41
1.0
 10
-1.73292700331638
 20
-15.6338134277219
 30
0.0
 41
1.0
 10
-1.71409490106277
 20
-15.6848492735483
 30
0.0
 41
1.0
 10
-1.69483226472071
 20
-15.7358462155631
 30
0.0
 41
1.0
 10
-1.67514534099124
 20
-15.7868022326587
 30
0.0
 41
1.0
 10
-1.65503859612398
 20
-15.8377154171204
 30
0.0
 41
1.0
 10
-1.63451540140161
 20
-15.8885839373864
 30
0.0
 41
1.0
 10
-1.61357849056887
 20
-15.9394060125613
 30
0.0
 41
1.0
 10
-1.59223047023234
 20
-15.9901798849073
 30
0.0
 41
1.0
 10
-1.57047441783103
 20
-16.0409037875524
 30
0.0
 41
1.0
 10
-1.54831396462259
 20
-16.091575941517
 30
0.0
 41
1.0
 10
-1.52575300566689
 20
-16.142194573699
 30
0.0
 41
1.0
 10
-1.50279551628519
 20
-16.1927579298344
 30
0.0
 41
1.0
 10
-1.47944534546785
 20
-16.2432642880075
 30
0.0
 41
1.0
 10
-1.45570597815609
 20
-16.293711977146
 30
0.0
 41
1.0
 10
-1.43158049816676
 20
-16.3440993738581
 30
0.0
 41
1.0
 10
-1.40707172286495
 20
-16.394424881835
 30
0.0
 41
1.0
 10
-1.38218229475614
 20
-16.4446869155736
 30
0.0
 41
1.0
 10
-1.35691478400647
 20
-16.494883885266
 30
0.0
 41
1.0
 10
-1.33127181179954
 20
-16.5450141756268
 30
0.0
 41
1.0
 10
-1.30525607909584
 20
-16.5950761509799
 30
0.0
 41
1.0
 10
-1.27887029133288
 20
-16.6450681871753
 30
0.0
 41
1.0
 10
-1.25211711127305
 20
-16.6949886989286
 30
0.0
 41
1.0
 10
-1.22499910817967
 20
-16.7448361649002
 30
0.0
 41
1.0
 10
-1.19751869875797
 20
-16.7946091656503
 30
0.0
 41
1.0
 10
-1.16967813794478
 20
-16.8443063770237
 30
0.0
 41
1.0
 10
-1.14147958682507
 20
-16.8939264969443
 30
0.0
 41
1.0
 10
-1.11292516703255
 20
-16.9434681851668
 30
0.0
 41
1.0
 10
-1.0840170172419
 20
-16.992930005636
 30
0.0
 41
1.0
 10
-1.05475736552138
 20
-17.0423103507837
 30
0.0
 41
1.0
 10
-1.02514855212895
 20
-17.091607430024
 30
0.0
 41
1.0
 10
-0.9951929200959649
 20
-17.1408194222995
 30
0.0
 41
1.0
 10
-0.9648927326206749
 20
-17.1899445999944
 30
0.0
 41
1.0
 10
-0.934250083854098
 20
-17.2389814599646
 30
0.0
 41
1.0
 10
-0.903266811133134
 20
-17.2879288640668
 30
0.0
 41
1.0
 10
-0.871944419907772
 20
-17.3367861421872
 30
0.0
 41
1.0
 10
-0.840284085901619
 20
-17.3855529617594
 30
0.0
 41
1.0
 10
-0.814686136758528
 20
-17.424493973308
 30
0.0
 41
1.0
 10
-0.7953362057873631
 20
-17.4536589945522
 30
0.0
 41
1.0
 10
-0.782368954552817
 20
-17.4730842425744
 30
0.0
 41
1.0
 10
-0.775868504622462
 20
-17.4827923417152
 30
0.0
 41
1.0
  0
ARC
  5
100000EB
102
{ACAD_XDICTIONARY
360
100000EC
102
}
330
1F
100
AcDbEntity
  8
VISIBLE
100
AcDbCircle
 10
0.0
 20
-0.0000000000001799
 30
0.0
 40
17.5
100
AcDbArc
 50
267.4589390306315
 51
272.5410609693685
  0
SPLINE
  5
100000F1
102
{ACAD_XDICTIONARY
360
100000F2
102
}
330
1F
100
AcDbEntity
  8
VISIBLE
100
AcDbSpline
210
0.0
220
0.0
230
1.0
 70
    12
 71
     5
 72
    81
 73
    75
 74
     0
 42
0.0000000001
 43
0.00000001
 40
-1.0
 40
-1.0
 40
-1.0
 40
-1.0
 40
-1.0
 40
-1.0
 40
-0.985714285714284
 40
-0.97142857142857
 40
-0.957142857142856
 40
-0.9428571428571411
 40
-0.928571428571427
 40
-0.914285714285713
 40
-0.9
 40
-0.885714285714284
 40
-0.87142857142857
 40
-0.857142857142856
 40
-0.842857142857142
 40
-0.8285714285714281
 40
-0.8142857142857131
 40
-0.8
 40
-0.7857142857142849
 40
-0.7714285714285709
 40
-0.7571428571428559
 40
-0.742857142857142
 40
-0.728571428571428
 40
-0.714285714285714
 40
-0.7
 40
-0.6857142857142849
 40
-0.6714285714285709
 40
-0.6571428571428569
 40
-0.642857142857142
 40
-0.628571428571428
 40
-0.614285714285714
 40
-0.6
 40
-0.585714285714286
 40
-0.571428571428571
 40
-0.5571428571428569
 40
-0.542857142857143
 40
-0.528571428571429
 40
-0.514285714285714
 40
-0.5
 40
-0.485714285714286
 40
-0.471428571428572
 40
-0.457142857142857
 40
-0.442857142857143
 40
-0.428571428571429
 40
-0.414285714285714
 40
-0.4
 40
-0.385714285714286
 40
-0.371428571428571
 40
-0.357142857142857
 40
-0.342857142857143
 40
-0.328571428571429
 40
-0.314285714285714
 40
-0.3
 40
-0.285714285714286
 40
-0.271428571428571
 40
-0.257142857142857
 40
-0.242857142857143
 40
-0.228571428571429
 40
-0.214285714285714
 40
-0.2
 40
-0.185714285714286
 40
-0.171428571428571
 40
-0.157142857142857
 40
-0.142857142857143
 40
-0.128571428571429
 40
-0.114285714285714
 40
-0.1
 40
-0.0857142857142857
 40
-0.0714285714285714
 40
-0.0571428571428571
 40
-0.0428571428571429
 40
-0.0285714285714286
 40
-0.0142857142857143
 40
0.0
 40
0.0
 40
0.0
 40
0.0
 40
0.0
 40
0.0
 10
0.775868504622459
 20
-17.4827923417152
 30
0.0
 41
1.0
 10
0.782368954552815
 20
-17.4730842425744
 30
0.0
 41
1.0
 10
0.7953362057873601
 20
-17.4536589945522
 30
0.0
 41
1.0
 10
0.8146861367585271
 20
-17.424493973308
 30
0.0
 41
1.0
 10
0.8402840859016181
 20
-17.3855529617594
 30
0.0
 41
1.0
 10
0.8719444199077699
 20
-17.3367861421872
 30
0.0
 41
1.0
 10
0.903266811133132
 20
-17.2879288640668
 30
0.0
 41
1.0
 10
0.9342500838540949
 20
-17.2389814599646
 30
0.0
 41
1.0
 10
0.964892732620671
 20
-17.1899445999944
 30
0.0
 41
1.0
 10
0.995192920095964
 20
-17.1408194222995
 30
0.0
 41
1.0
 10
1.02514855212895
 20
-17.091607430024
 30
0.0
 41
1.0
 10
1.05475736552138
 20
-17.0423103507837
 30
0.0
 41
1.0
 10
1.0840170172419
 20
-16.992930005636
 30
0.0
 41
1.0
 10
1.11292516703255
 20
-16.9434681851668
 30
0.0
 41
1.0
 10
1.14147958682507
 20
-16.8939264969443
 30
0.0
 41
1.0
 10
1.16967813794478
 20
-16.8443063770237
 30
0.0
 41
1.0
 10
1.19751869875797
 20
-16.7946091656503
 30
0.0
 41
1.0
 10
1.22499910817967
 20
-16.7448361649002
 30
0.0
 41
1.0
 10
1.25211711127305
 20
-16.6949886989286
 30
0.0
 41
1.0
 10
1.27887029133288
 20
-16.6450681871753
 30
0.0
 41
1.0
 10
1.30525607909584
 20
-16.5950761509799
 30
0.0
 41
1.0
 10
1.33127181179954
 20
-16.5450141756268
 30
0.0
 41
1.0
 10
1.35691478400646
 20
-16.494883885266
 30
0.0
 41
1.0
 10
1.38218229475614
 20
-16.4446869155736
 30
0.0
 41
1.0
 10
1.40707172286495
 20
-16.394424881835
 30
0.0
 41
1.0
 10
1.43158049816676
 20
-16.3440993738581
 30
0.0
 41
1.0
 10
1.45570597815608
 20
-16.293711977146
 30
0.0
 41
1.0
 10
1.47944534546785
 20
-16.2432642880075
 30
0.0
 41
1.0
 10
1.50279551628519
 20
-16.1927579298344
 30
0.0
 41
1.0
 10
1.52575300566689
 20
-16.142194573699
 30
0.0
 41
1.0
 10
1.54831396462259
 20
-16.091575941517
 30
0.0
 41
1.0
 10
1.57047441783103
 20
-16.0409037875524
 30
0.0
 41
1.0
 10
1.59223047023234
 20
-15.9901798849073
 30
0.0
 41
1.0
 10
1.61357849056887
 20
-15.9394060125613
 30
0.0
 41
1.0
 10
1.63451540140161
 20
-15.8885839373864
 30
0.0
 41
1.0
 10
1.65503859612397
 20
-15.8377154171204
 30
0.0
 41
1.0
 10
1.67514534099124
 20
-15.7868022326587
 30
0.0
 41
1.0
 10
1.69483226472071
 20
-15.7358462155631
 30
0.0
 41
1.0
 10
1.71409490106277
 20
-15.6848492735483
 30
0.0
 41
1.0
 10
1.73292700331638
 20
-15.6338134277219
 30
0.0
 41
1.0
 10
1.75132068220392
 20
-15.5827408086001
 30
0.0
 41
1.0
 10
1.76926774177037
 20
-15.5316335917172
 30
0.0
 41
1.0
 10
1.78676083053
 20
-15.4804939431549
 30
0.0
 41
1.0
 10
1.80379446108758
 20
-15.4293239715352
 30
0.0
 41
1.0
 10
1.82036659784808
 20
-15.3781256528457
 30
0.0
 41
1.0
 10
1.83647821893213
 20
-15.3269008539246
 30
0.0
 41
1.0
 10
1.8521300748788
 20
-15.2756514925171
 30
0.0
 41
1.0
 10
1.86731988854564
 20
-15.2243796760436
 30
0.0
 41
1.0
 10
1.88203989327388
 20
-15.1730878245483
 30
0.0
 41
1.0
 10
1.89627297312156
 20
-15.1217788610528
 30
0.0
 41
1.0
 10
1.90999397584266
 20
-15.0704561536318
 30
0.0
 41
1.0
 10
1.92317712573035
 20
-15.0191231648786
 30
0.0
 41
1.0
 10
1.93580248772505
 20
-14.967783146808
 30
0.0
 41
1.0
 10
1.94786152134632
 20
-14.9164388806956
 30
0.0
 41
1.0
 10
1.95936622843625
 20
-14.8650922421832
 30
0.0
 41
1.0
 10
1.97034424319341
 20
-14.8137444506773
 30
0.0
 41
1.0
 10
1.98082112687549
 20
-14.7623969421309
 30
0.0
 41
1.0
 10
1.99080474995765
 20
-14.711052139464
 30
0.0
 41
1.0
 10
2.00027191834009
 20
-14.6597141164522
 30
0.0
 41
1.0
 10
2.00914629597693
 20
-14.6083896793345
 30
0.0
 41
1.0
 10
2.01731442062386
 20
-14.5570876226576
 30
0.0
 41
1.0
 10
2.0246657018613
 20
-14.5058168458364
 30
0.0
 41
1.0
 10
2.03112839261881
 20
-14.454584643907
 30
0.0
 41
1.0
 10
2.03670035421462
 20
-14.4033952917561
 30
0.0
 41
1.0
 10
2.04149965126194
 20
-14.3522475692753
 30
0.0
 41
1.0
 10
2.0457079185261
 20
-14.3011379744026
 30
0.0
 41
1.0
 10
2.04947225043192
 20
-14.2500661151694
 30
0.0
 41
1.0
 10
2.05281635564806
 20
-14.199039651832
 30
0.0
 41
1.0
 10
2.0555570530445
 20
-14.1480788662636
 30
0.0
 41
1.0
 10
2.05719374853789
 20
-14.0972228990995
 30
0.0
 41
1.0
 10
2.057039212566
 20
-14.0465212645082
 30
0.0
 41
1.0
 10
2.054923317071661
 20
-14.0061224013745
 30
0.0
 41
1.0
 10
2.05196744376108
 20
-13.975931600121
 30
0.0
 41
1.0
 10
2.04935667478723
 20
-13.9558546936855
 30
0.0
 41
1.0
 10
2.0478912410813
 20
-13.9458288142221
 30
0.0
 41
1.0
  0
LINE
  5
100000F5
102
{ACAD_XDICTIONARY
360
100000F6
102
}
330
1F
100
AcDbEntity
  8
VISIBLE
100
AcDbLine
 10
2.0478912410813
 20
-13.9458288142221
 30
0.0
 11
1.80440680701115
 21
-12.2800109902463
 31
0.0
  0
ARC
  5
100000F9
102
{ACAD_XDICTIONARY
360
100000FA
102
}
330
1F
100
AcDbEntity
  8
VISIBLE
100
AcDbCircle
 10
2.27144422327757
 20
-12.211746418123
 30
0.0
 40
0.472
100
AcDbArc
 50
100.5368772719939
 51
188.3157572449147
  0
ARC
  5
100000FF
102
{ACAD_XDICTIONARY
360
10000100
102
}
330
1F
100
AcDbEntity
  8
VISIBLE
100
AcDbCircle
 10
0.0
 20
0.0
 30
0.0
 40
11.9492
100
AcDbArc
 50
280.5368772719954
 51
289.4631227280046
  0
ARC
  5
10000105
102
{ACAD_XDICTIONARY
360
10000106
102
}
330
1F
100
AcDbEntity
  8
VISIBLE
100
AcDbCircle
 10
4.13874480842369
 20
-11.7114047343069
 30
0.0
 40
0.472
100
AcDbArc
 50
21.68424275507722
 51
109.4631227280034
  0
LINE
  5
1000010B
102
{ACAD_XDICTIONARY
360
1000010C
102
}
330
1F
100
AcDbEntity
  8
VISIBLE
100
AcDbLine
 10
4.57734336148994
 20
-11.537004879811
 30
0.0
 11
5.199388568147
 21
-13.101387650486
 31
0.0
  0
SPLINE
  5
1000010F
102
{ACAD_XDICTIONARY
360
10000110
102
}
330
1F
100
AcDbEntity
  8
VISIBLE
100
AcDbSpline
210
0.0
220
0.0
230
1.0
 70
    12
 71
     5
 72
    81
 73
    75
 74
     0
 42
0.0000000001
 43
0.00000001
 40
0.0
 40
0.0
 40
0.0
 40
0.0
 40
0.0
 40
0.0
 40
0.0142857142857143
 40
0.0285714285714286
 40
0.0428571428571429
 40
0.0571428571428571
 40
0.0714285714285714
 40
0.0857142857142857
 40
0.1
 40
0.114285714285714
 40
0.128571428571429
 40
0.142857142857143
 40
0.157142857142857
 40
0.171428571428571
 40
0.185714285714286
 40
0.2
 40
0.214285714285714
 40
0.228571428571429
 40
0.242857142857143
 40
0.257142857142857
 40
0.271428571428571
 40
0.285714285714286
 40
0.3
 40
0.314285714285714
 40
0.328571428571429
 40
0.342857142857143
 40
0.357142857142857
 40
0.371428571428571
 40
0.385714285714286
 40
0.4
 40
0.414285714285714
 40
0.428571428571429
 40
0.442857142857143
 40
0.457142857142857
 40
0.471428571428572
 40
0.485714285714286
 40
0.5
 40
0.514285714285714
 40
0.528571428571429
 40
0.542857142857143
 40
0.5571428571428569
 40
0.571428571428571
 40
0.585714285714286
 40
0.6
 40
0.614285714285714
 40
0.628571428571428
 40
0.642857142857142
 40
0.6571428571428569
 40
0.6714285714285709
 40
0.6857142857142849
 40
0.7
 40
0.714285714285714
 40
0.728571428571428
 40
0.742857142857142
 40
0.7571428571428559
 40
0.7714285714285709
 40
0.7857142857142849
 40
0.8
 40
0.8142857142857131
 40
0.8285714285714281
 40
0.842857142857142
 40
0.857142857142856
 40
0.87142857142857
 40
0.885714285714284
 40
0.9
 40
0.914285714285713
 40
0.928571428571427
 40
0.9428571428571411
 40
0.957142857142856
 40
0.97142857142857
 40
0.985714285714284
 40
1.0
 40
1.0
 40
1.0
 40
1.0
 40
1.0
 40
1.0
 10
5.199388568147
 20
-13.101387650486
 30
0.0
 41
1.0
 10
5.20313240506178
 20
-13.1108030336495
 30
0.0
 41
1.0
 10
5.21090986602477
 20
-13.129495529139
 30
0.0
 41
1.0
 10
5.22344540527422
 20
-13.1571194666405
 30
0.0
 41
1.0
 10
5.24181241759123
 20
-13.1931638561455
 30
0.0
 41
1.0
 10
5.26702940280938
 20
-13.2371500277008
 30
0.0
 41
1.0
 10
5.293874806266991
 20
-13.2803742394523
 30
0.0
 41
1.0
 10
5.321728712620611
 20
-13.3231372256531
 30
0.0
 41
1.0
 10
5.35013802435941
 20
-13.3656553865605
 30
0.0
 41
1.0
 10
5.37893396103471
 20
-13.408002748122
 30
0.0
 41
1.0
 10
5.40813322482774
 20
-13.4501608220269
 30
0.0
 41
1.0
 10
5.43786339923143
 20
-13.4920564005173
 30
0.0
 41
1.0
 10
5.468283535597769
 20
-13.5336016990853
 30
0.0
 41
1.0
 10
5.49949649093528
 20
-13.5747387420693
 30
0.0
 41
1.0
 10
5.53149827564782
 20
-13.6154648966494
 30
0.0
 41
1.0
 10
5.56422310743184
 20
-13.6558097186746
 30
0.0
 41
1.0
 10
5.59757076246696
 20
-13.695820796235
 30
0.0
 41
1.0
 10
5.63143858229395
 20
-13.7355472441521
 30
0.0
 41
1.0
 10
5.66575705483833
 20
-13.7750213360728
 30
0.0
 41
1.0
 10
5.70050405653275
 20
-13.814251141054
 30
0.0
 41
1.0
 10
5.73568519194851
 20
-13.8532306255478
 30
0.0
 41
1.0
 10
5.77132187980766
 20
-13.8919457653534
 30
0.0
 41
1.0
 10
5.807437442325
 20
-13.9303816873349
 30
0.0
 41
1.0
 10
5.844041335579679
 20
-13.9685307662174
 30
0.0
 41
1.0
 10
5.88112477266093
 20
-14.006394863586
 30
0.0
 41
1.0
 10
5.91866886329326
 20
-14.043981130643
 30
0.0
 41
1.0
 10
5.95664955376322
 20
-14.0812994565481
 30
0.0
 41
1.0
 10
5.995043377549329
 20
-14.1183595005861
 30
0.0
 41
1.0
 10
6.03383405030034
 20
-14.1551672893169
 30
0.0
 41
1.0
 10
6.07301363587029
 20
-14.1917246102502
 30
0.0
 41
1.0
 10
6.112579108485781
 20
-14.2280307768776
 30
0.0
 41
1.0
 10
6.1525301592601
 20
-14.2640837531135
 30
0.0
 41
1.0
 10
6.19286670185148
 20
-14.2998814331683
 30
0.0
 41
1.0
 10
6.23358598538912
 20
-14.335423123584
 30
0.0
 41
1.0
 10
6.27468220333836
 20
-14.3707097419381
 30
0.0
 41
1.0
 10
6.31614790608494
 20
-14.4057430880917
 30
0.0
 41
1.0
 10
6.3579749079564
 20
-14.4405253759541
 30
0.0
 41
1.0
 10
6.40015531137992
 20
-14.4750587050833
 30
0.0
 41
1.0
 10
6.442682695999809
 20
-14.509344448499
 30
0.0
 41
1.0
 10
6.4855522400731
 20
-14.5433831871967
 30
0.0
 41
1.0
 10
6.528760108202481
 20
-14.5771750206388
 30
0.0
 41
1.0
 10
6.57230304244784
 20
-14.6107197733969
 30
0.0
 41
1.0
 10
6.616177906552791
 20
-14.6440172265288
 30
0.0
 41
1.0
 10
6.66038115194094
 20
-14.6770673885979
 30
0.0
 41
1.0
 10
6.704908744361111
 20
-14.7098705345915
 30
0.0
 41
1.0
 10
6.74975642404153
 20
-14.7424270764881
 30
0.0
 41
1.0
 10
6.79491987112085
 20
-14.7747374827111
 30
0.0
 41
1.0
 10
6.84039489131793
 20
-14.806802186533
 30
0.0
 41
1.0
 10
6.88617763104894
 20
-14.8386214832332
 30
0.0
 41
1.0
 10
6.93226460795425
 20
-14.8701955088218
 30
0.0
 41
1.0
 10
6.97865258396971
 20
-14.9015242895373
 30
0.0
 41
1.0
 10
7.02533847786691
 20
-14.9326077735464
 30
0.0
 41
1.0
 10
7.07231926891271
 20
-14.9634458691181
 30
0.0
 41
1.0
 10
7.11959187945288
 20
-14.9940384879663
 30
0.0
 41
1.0
 10
7.167153152548881
 20
-15.0243855640338
 30
0.0
 41
1.0
 10
7.21499993314816
 20
-15.0544870434844
 30
0.0
 41
1.0
 10
7.26312912258864
 20
-15.0843428848028
 30
0.0
 41
1.0
 10
7.311537735153199
 20
-15.1139530551018
 30
0.0
 41
1.0
 10
7.36022296819385
 20
-15.1433175334631
 30
0.0
 41
1.0
 10
7.40918220680038
 20
-15.1724363006031
 30
0.0
 41
1.0
 10
7.45841292838025
 20
-15.2013093094333
 30
0.0
 41
1.0
 10
7.507912625422141
 20
-15.2299364600841
 30
0.0
 41
1.0
 10
7.55767872775187
 20
-15.2583175782326
 30
0.0
 41
1.0
 10
7.607708502021611
 20
-15.2864523857179
 30
0.0
 41
1.0
 10
7.65799902621549
 20
-15.3143405019761
 30
0.0
 41
1.0
 10
7.7085473606802
 20
-15.341981521441
 30
0.0
 41
1.0
 10
7.7593506816207
 20
-15.3693750795526
 30
0.0
 41
1.0
 10
7.81040642387693
 20
-15.3965209216254
 30
0.0
 41
1.0
 10
7.86171242719676
 20
-15.4234189806667
 30
0.0
 41
1.0
 10
7.913267052765391
 20
-15.450069429066
 30
0.0
 41
1.0
 10
7.965069116093122
 20
-15.4764725666743
 30
0.0
 41
1.0
 10
8.00670809611013
 20
-15.4973974973529
 30
0.0
 41
1.0
 10
8.038048138514698
 20
-15.5129801811666
 30
0.0
 41
1.0
 10
8.058990731512171
 20
-15.5233193138114
 30
0.0
 41
1.0
 10
8.069474335858288
 20
-15.5284765493246
 30
0.0
 41
1.0
  0
ARC
  5
10000113
102
{ACAD_XDICTIONARY
360
10000114
102
}
330
1F
100
AcDbEntity
  8
VISIBLE
100
AcDbCircle
 10
0.0000000000000899
 20
-0.0000000000001558
 30
0.0
 40
17.5
100
AcDbArc
 50
297.4589390306315
 51
302.5410609693683
  0
SPLINE
  5
10000119
102
{ACAD_XDICTIONARY
360
1000011A
102
}
330
1F
100
AcDbEntity
  8
VISIBLE
100
AcDbSpline
210
0.0
220
0.0
230
1.0
 70
    12
 71
     5
 72
    81
 73
    75
 74
     0
 42
0.0000000001
 43
0.00000001
 40
-1.0
 40
-1.0
 40
-1.0
 40
-1.0
 40
-1.0
 40
-1.0
 40
-0.985714285714284
 40
-0.97142857142857
 40
-0.957142857142856
 40
-0.9428571428571411
 40
-0.928571428571427
 40
-0.914285714285713
 40
-0.9
 40
-0.885714285714284
 40
-0.87142857142857
 40
-0.857142857142856
 40
-0.842857142857142
 40
-0.8285714285714281
 40
-0.8142857142857131
 40
-0.8
 40
-0.7857142857142849
 40
-0.7714285714285709
 40
-0.7571428571428559
 40
-0.742857142857142
 40
-0.728571428571428
 40
-0.714285714285714
 40
-0.7
 40
-0.6857142857142849
 40
-0.6714285714285709
 40
-0.6571428571428569
 40
-0.642857142857142
 40
-0.628571428571428
 40
-0.614285714285714
 40
-0.6
 40
-0.585714285714286
 40
-0.571428571428571
 40
-0.5571428571428569
 40
-0.542857142857143
 40
-0.528571428571429
 40
-0.514285714285714
 40
-0.5
 40
-0.485714285714286
 40
-0.471428571428572
 40
-0.457142857142857
 40
-0.442857142857143
 40
-0.428571428571429
 40
-0.414285714285714
 40
-0.4
 40
-0.385714285714286
 40
-0.371428571428571
 40
-0.357142857142857
 40
-0.342857142857143
 40
-0.328571428571429
 40
-0.314285714285714
 40
-0.3
 40
-0.285714285714286
 40
-0.271428571428571
 40
-0.257142857142857
 40
-0.242857142857143
 40
-0.228571428571429
 40
-0.214285714285714
 40
-0.2
 40
-0.185714285714286
 40
-0.171428571428571
 40
-0.157142857142857
 40
-0.142857142857143
 40
-0.128571428571429
 40
-0.114285714285714
 40
-0.1
 40
-0.0857142857142857
 40
-0.0714285714285714
 40
-0.0571428571428571
 40
-0.0428571428571429
 40
-0.0285714285714286
 40
-0.0142857142857143
 40
0.0
 40
0.0
 40
0.0
 40
0.0
 40
0.0
 40
0.0
 10
9.41331800585688
 20
-14.7526080447022
 30
0.0
 41
1.0
 10
9.414093511062191
 20
-14.7409503592586
 30
0.0
 41
1.0
 10
9.41561085603747
 20
-14.7176439753793
 30
0.0
 41
1.0
 10
9.417785877197911
 20
-14.6827113605944
 30
0.0
 41
1.0
 10
9.4204838456663
 20
-14.6361884807726
 30
0.0
 41
1.0
 10
9.423519089421818
 20
-14.5781250091583
 30
0.0
 41
1.0
 10
9.426216436870071
 20
-14.5201521695336
 30
0.0
 41
1.0
 10
9.428575036087711
 20
-14.4622708377713
 30
0.0
 41
1.0
 10
9.43059391837368
 20
-14.4044823469319
 30
0.0
 41
1.0
 10
9.432272061619239
 20
-14.3467886013451
 30
0.0
 41
1.0
 10
9.4336084038085
 20
-14.2891919498472
 30
0.0
 41
1.0
 10
9.43460184876213
 20
-14.2316950201965
 30
0.0
 41
1.0
 10
9.4352512778841
 20
-14.1743005609907
 30
0.0
 41
1.0
 10
9.4355555597446
 20
-14.1170112930516
 30
0.0
 41
1.0
 10
9.435513568564001
 20
-14.0598297226082
 30
0.0
 41
1.0
 10
9.4351241702233
 20
-14.0027581626583
 30
0.0
 41
1.0
 10
9.43438619745642
 20
-13.9457988347051
 30
0.0
 41
1.0
 10
9.43329842974695
 20
-13.8889539469221
 30
0.0
 41
1.0
 10
9.43185957633994
 20
-13.8322257735297
 30
0.0
 41
1.0
 10
9.43006825402712
 20
-13.7756167521516
 30
0.0
 41
1.0
 10
9.42792299843101
 20
-13.719129484938
 30
0.0
 41
1.0
 10
9.42542229617395
 20
-13.6627666761667
 30
0.0
 41
1.0
 10
9.422564616353249
 20
-13.6065310851117
 30
0.0
 41
1.0
 10
9.419348437706681
 20
-13.5504254787902
 30
0.0
 41
1.0
 10
9.41577229786528
 20
-13.4944525666723
 30
0.0
 41
1.0
 10
9.41183476590383
 20
-13.4386150106551
 30
0.0
 41
1.0
 10
9.40753434609704
 20
-13.3829155050772
 30
0.0
 41
1.0
 10
9.40286939668954
 20
-13.3273568410651
 30
0.0
 41
1.0
 10
9.3978380587135
 20
-13.2719419664259
 30
0.0
 41
1.0
 10
9.392438149657501
 20
-13.2166740708212
 30
0.0
 41
1.0
 10
9.386667197155829
 20
-13.1615565699689
 30
0.0
 41
1.0
 10
9.38052263561145
 20
-13.1065929707669
 30
0.0
 41
1.0
 10
9.37400197835449
 20
-13.0517867562965
 30
0.0
 41
1.0
 10
9.367102970113418
 20
-12.997141282828
 30
0.0
 41
1.0
 10
9.359823829183911
 20
-12.9426596192372
 30
0.0
 41
1.0
 10
9.35216317704729
 20
-12.8883445910727
 30
0.0
 41
1.0
 10
9.34411953665893
 20
-12.8341991075077
 30
0.0
 41
1.0
 10
9.33569090418321
 20
-12.7802264403625
 30
0.0
 41
1.0
 10
9.32687436559187
 20
-12.7264304748913
 30
0.0
 41
1.0
 10
9.31766552163699
 20
-12.6728160847753
 30
0.0
 41
1.0
 10
9.308058605261731
 20
-12.6193890597342
 30
0.0
 41
1.0
 10
9.29804760632805
 20
-12.5661553818136
 30
0.0
 41
1.0
 10
9.287627241303401
 20
-12.5131206026383
 30
0.0
 41
1.0
 10
9.27679381227511
 20
-12.4602892920259
 30
0.0
 41
1.0
 10
9.265546544359951
 20
-12.4076641790295
 30
0.0
 41
1.0
 10
9.25388721805433
 20
-12.3552463913181
 30
0.0
 41
1.0
 10
9.24181744221677
 20
-12.3030372144381
 30
0.0
 41
1.0
 10
9.229336298494228
 20
-12.2510396120404
 30
0.0
 41
1.0
 10
9.21643827078509
 20
-12.1992595632743
 30
0.0
 41
1.0
 10
9.203109997759489
 20
-12.1477081575214
 30
0.0
 41
1.0
 10
9.1893313809709
 20
-12.0964008877434
 30
0.0
 41
1.0
 10
9.17508182929893
 20
-12.045353640487
 30
0.0
 41
1.0
 10
9.160345704483008
 20
-11.9945791996098
 30
0.0
 41
1.0
 10
9.1451170008879
 20
-11.9440842440071
 30
0.0
 41
1.0
 10
9.129407050234699
 20
-11.8938643971115
 30
0.0
 41
1.0
 10
9.113240394144588
 20
-11.8439068978606
 30
0.0
 41
1.0
 10
9.096639887292511
 20
-11.7942002091973
 30
0.0
 41
1.0
 10
9.07961355717006
 20
-11.7447424941944
 30
0.0
 41
1.0
 10
9.06214335398527
 20
-11.6955488778949
 30
0.0
 41
1.0
 10
9.0441665719027
 20
-11.6466634226977
 30
0.0
 41
1.0
 10
9.025589347009719
 20
-11.5981504760255
 30
0.0
 41
1.0
 10
9.00632035490115
 20
-11.550073040208
 30
0.0
 41
1.0
 10
8.98630110830925
 20
-11.5024733064665
 30
0.0
 41
1.0
 10
8.96553189252467
 20
-11.4553560463027
 30
0.0
 41
1.0
 10
8.94411434444757
 20
-11.4086611707649
 30
0.0
 41
1.0
 10
8.922204013367889
 20
-11.3622948295959
 30
0.0
 41
1.0
 10
8.89992809081003
 20
-11.3161831361286
 30
0.0
 41
1.0
 10
8.87731093921143
 20
-11.2703208700051
 30
0.0
 41
1.0
 10
8.854204059996631
 20
-11.2248171864078
 30
0.0
 41
1.0
 10
8.83019349629007
 20
-11.1799562791629
 30
0.0
 41
1.0
 10
8.804708846917011
 20
-11.1361246435795
 30
0.0
 41
1.0
 10
8.782676996100301
 20
-11.1021961495688
 30
0.0
 41
1.0
 10
8.76502173409619
 20
-11.0775280853779
 30
0.0
 41
1.0
 10
8.75272228862367
 20
-11.0614463588623
 30
0.0
 41
1.0
 10
8.746440246075101
 20
-11.0534964094047
 30
0.0
 41
1.0
  0
LINE
  5
1000011D
102
{ACAD_XDICTIONARY
360
1000011E
102
}
330
1F
100
AcDbEntity
  8
VISIBLE
100
AcDbLine
 10
8.74644024607509
 20
-11.0534964094047
 30
0.0
 11
7.70266762875639
 21
-9.732598072799858
 31
0.0
  0
ARC
  5
10000121
102
{ACAD_XDICTIONARY
360
10000122
102
}
330
1F
100
AcDbEntity
  8
VISIBLE
100
AcDbCircle
 10
8.073001609699261
 20
-9.439960511029328
 30
0.0
 40
0.472
100
AcDbArc
 50
130.5368772719947
 51
218.3157572449248
  0
ARC
  5
10000127
102
{ACAD_XDICTIONARY
360
10000128
102
}
330
1F
100
AcDbEntity
  8
VISIBLE
100
AcDbCircle
 10
0.0
 20
0.0
 30
0.0
 40
11.9492
100
AcDbArc
 50
310.5368772719954
 51
319.4631227280046
  0
ARC
  5
1000012D
102
{ACAD_XDICTIONARY
360
1000012E
102
}
330
1F
100
AcDbEntity
  8
VISIBLE
100
AcDbCircle
 10
9.43996051102932
 20
-8.07300160969927
 30
0.0
 40
0.472
100
AcDbArc
 50
51.68424275507515
 51
139.4631227280047
  0
LINE
  5
10000133
102
{ACAD_XDICTIONARY
360
10000134
102
}
330
1F
100
AcDbEntity
  8
VISIBLE
100
AcDbLine
 10
9.73259807279985
 20
-7.7026676287564
 30
0.0
 11
11.0534964094047
 21
-8.746440246075101
 31
0.0
  0
SPLINE
  5
10000137
102
{ACAD_XDICTIONARY
360
10000138
102
}
330
1F
100
AcDbEntity
  8
VISIBLE
100
AcDbSpline
210
0.0
220
0.0
230
1.0
 70
    12
 71
     5
 72
    81
 73
    75
 74
     0
 42
0.0000000001
 43
0.00000001
 40
0.0
 40
0.0
 40
0.0
 40
0.0
 40
0.0
 40
0.0
 40
0.0142857142857143
 40
0.0285714285714286
 40
0.0428571428571429
 40
0.0571428571428571
 40
0.0714285714285714
 40
0.0857142857142857
 40
0.1
 40
0.114285714285714
 40
0.128571428571429
 40
0.142857142857143
 40
0.157142857142857
 40
0.171428571428571
 40
0.185714285714286
 40
0.2
 40
0.214285714285714
 40
0.228571428571429
 40
0.242857142857143
 40
0.257142857142857
 40
0.271428571428571
 40
0.285714285714286
 40
0.3
 40
0.314285714285714
 40
0.328571428571429
 40
0.342857142857143
 40
0.357142857142857
 40
0.371428571428571
 40
0.385714285714286
 40
0.4
 40
0.414285714285714
 40
0.428571428571429
 40
0.442857142857143
 40
0.457142857142857
 40
0.471428571428572
 40
0.485714285714286
 40
0.5
 40
0.514285714285714
 40
0.528571428571429
 40
0.542857142857143
 40
0.5571428571428569
 40
0.571428571428571
 40
0.585714285714286
 40
0.6
 40
0.614285714285714
 40
0.628571428571428
 40
0.642857142857142
 40
0.6571428571428569
 40
0.6714285714285709
 40
0.6857142857142849
 40
0.7
 40
0.714285714285714
 40
0.728571428571428
 40
0.742857142857142
 40
0.7571428571428559
 40
0.7714285714285709
 40
0.7857142857142849
 40
0.8
 40
0.8142857142857131
 40
0.8285714285714281
 40
0.842857142857142
 40
0.857142857142856
 40
0.87142857142857
 40
0.885714285714284
 40
0.9
 40
0.914285714285713
 40
0.928571428571427
 40
0.9428571428571411
 40
0.957142857142856
 40
0.97142857142857
 40
0.985714285714284
 40
1.0
 40
1.0
 40
1.0
 40
1.0
 40
1.0
 40
1.0
 10
11.0534964094047
 20
-8.746440246075101
 30
0.0
 41
1.0
 10
11.0614463588623
 20
-8.75272228862368
 30
0.0
 41
1.0
 10
11.0775280853779
 20
-8.7650217340962
 30
0.0
 41
1.0
 10
11.1021961495688
 20
-8.78267699610031
 30
0.0
 41
1.0
 10
11.1361246435795
 20
-8.80470884691702
 30
0.0
 41
1.0
 10
11.1799562791629
 20
-8.83019349629008
 30
0.0
 41
1.0
 10
11.2248171864078
 20
-8.854204059996631
 30
0.0
 41
1.0
 10
11.2703208700051
 20
-8.87731093921144
 30
0.0
 41
1.0
 10
11.3161831361286
 20
-8.89992809081004
 30
0.0
 41
1.0
 10
11.3622948295959
 20
-8.922204013367889
 30
0.0
 41
1.0
 10
11.4086611707649
 20
-8.944114344447579
 30
0.0
 41
1.0
 10
11.4553560463027
 20
-8.96553189252468
 30
0.0
 41
1.0
 10
11.5024733064665
 20
-8.98630110830926
 30
0.0
 41
1.0
 10
11.550073040208
 20
-9.006320354901158
 30
0.0
 41
1.0
 10
11.5981504760255
 20
-9.02558934700973
 30
0.0
 41
1.0
 10
11.6466634226977
 20
-9.04416657190271
 30
0.0
 41
1.0
 10
11.6955488778949
 20
-9.062143353985281
 30
0.0
 41
1.0
 10
11.7447424941944
 20
-9.07961355717007
 30
0.0
 41
1.0
 10
11.7942002091973
 20
-9.09663988729252
 30
0.0
 41
1.0
 10
11.8439068978606
 20
-9.113240394144599
 30
0.0
 41
1.0
 10
11.8938643971115
 20
-9.12940705023471
 30
0.0
 41
1.0
 10
11.9440842440071
 20
-9.14511700088791
 30
0.0
 41
1.0
 10
11.9945791996098
 20
-9.160345704483019
 30
0.0
 41
1.0
 10
12.045353640487
 20
-9.17508182929894
 30
0.0
 41
1.0
 10
12.0964008877434
 20
-9.189331380970911
 30
0.0
 41
1.0
 10
12.1477081575214
 20
-9.2031099977595
 30
0.0
 41
1.0
 10
12.1992595632743
 20
-9.2164382707851
 30
0.0
 41
1.0
 10
12.2510396120404
 20
-9.229336298494239
 30
0.0
 41
1.0
 10
12.3030372144381
 20
-9.24181744221678
 30
0.0
 41
1.0
 10
12.3552463913181
 20
-9.253887218054341
 30
0.0
 41
1.0
 10
12.4076641790295
 20
-9.26554654435996
 30
0.0
 41
1.0
 10
12.4602892920259
 20
-9.27679381227512
 30
0.0
 41
1.0
 10
12.5131206026383
 20
-9.287627241303412
 30
0.0
 41
1.0
 10
12.5661553818136
 20
-9.29804760632805
 30
0.0
 41
1.0
 10
12.6193890597342
 20
-9.30805860526174
 30
0.0
 41
1.0
 10
12.6728160847753
 20
-9.317665521637
 30
0.0
 41
1.0
 10
12.7264304748913
 20
-9.326874365591879
 30
0.0
 41
1.0
 10
12.7802264403625
 20
-9.33569090418322
 30
0.0
 41
1.0
 10
12.8341991075077
 20
-9.34411953665894
 30
0.0
 41
1.0
 10
12.8883445910727
 20
-9.3521631770473
 30
0.0
 41
1.0
 10
12.9426596192372
 20
-9.359823829183918
 30
0.0
 41
1.0
 10
12.997141282828
 20
-9.367102970113429
 30
0.0
 41
1.0
 10
13.0517867562965
 20
-9.3740019783545
 30
0.0
 41
1.0
 10
13.1065929707669
 20
-9.38052263561146
 30
0.0
 41
1.0
 10
13.1615565699689
 20
-9.38666719715584
 30
0.0
 41
1.0
 10
13.2166740708212
 20
-9.39243814965752
 30
0.0
 41
1.0
 10
13.2719419664259
 20
-9.39783805871351
 30
0.0
 41
1.0
 10
13.3273568410651
 20
-9.40286939668955
 30
0.0
 41
1.0
 10
13.3829155050772
 20
-9.40753434609704
 30
0.0
 41
1.0
 10
13.4386150106551
 20
-9.411834765903839
 30
0.0
 41
1.0
 10
13.4944525666723
 20
-9.41577229786529
 30
0.0
 41
1.0
 10
13.5504254787902
 20
-9.41934843770669
 30
0.0
 41
1.0
 10
13.6065310851117
 20
-9.42256461635326
 30
0.0
 41
1.0
 10
13.6627666761667
 20
-9.425422296173961
 30
0.0
 41
1.0
 10
13.7191294849379
 20
-9.42792299843102
 30
0.0
 41
1.0
 10
13.7756167521516
 20
-9.430068254027129
 30
0.0
 41
1.0
 10
13.8322257735297
 20
-9.43185957633995
 30
0.0
 41
1.0
 10
13.8889539469221
 20
-9.43329842974696
 30
0.0
 41
1.0
 10
13.9457988347051
 20
-9.434386197456439
 30
0.0
 41
1.0
 10
14.0027581626583
 20
-9.43512417022331
 30
0.0
 41
1.0
 10
14.0598297226082
 20
-9.435513568564012
 30
0.0
 41
1.0
 10
14.1170112930515
 20
-9.43555555974461
 30
0.0
 41
1.0
 10
14.1743005609906
 20
-9.43525127788411
 30
0.0
 41
1.0
 10
14.2316950201965
 20
-9.43460184876214
 30
0.0
 41
1.0
 10
14.2891919498472
 20
-9.43360840380851
 30
0.0
 41
1.0
 10
14.346788601345
 20
-9.43227206161925
 30
0.0
 41
1.0
 10
14.4044823469319
 20
-9.43059391837369
 30
0.0
 41
1.0
 10
14.4622708377713
 20
-9.428575036087711
 30
0.0
 41
1.0
 10
14.5201521695336
 20
-9.42621643687008
 30
0.0
 41
1.0
 10
14.5781250091583
 20
-9.423519089421829
 30
0.0
 41
1.0
 10
14.6361884807726
 20
-9.42048384566631
 30
0.0
 41
1.0
 10
14.6827113605944
 20
-9.41778587719792
 30
0.0
 41
1.0
 10
14.7176439753793
 20
-9.41561085603747
 30
0.0
 41
1.0
 10
14.7409503592586
 20
-9.414093511062202
 30
0.0
 41
1.0
 10
14.7526080447021
 20
-9.41331800585689
 30
0.0
 41
1.0
  0
ARC
  5
1000013B
102
{ACAD_XDICTIONARY
360
1000013C
102
}
330
1F
100
AcDbEntity
  8
VISIBLE
100
AcDbCircle
 10
0.0000000000001558
 20
-0.0000000000000899
 30
0.0
 40
17.5
100
AcDbArc
 50
327.4589390306314
 51
332.5410609693685
  0
SPLINE
  5
10000141
102
{ACAD_XDICTIONARY
360
10000142
102
}
330
1F
100
AcDbEntity
  8
VISIBLE
100
AcDbSpline
210
0.0
220
0.0
230
1.0
 70
    12
 71
     5
 72
    81
 73
    75
 74
     0
 42
0.0000000001
 43
0.00000001
 40
-1.0
 40
-1.0
 40
-1.0
 40
-1.0
 40
-1.0
 40
-1.0
 40
-0.985714285714284
 40
-0.97142857142857
 40
-0.957142857142856
 40
-0.9428571428571411
 40
-0.928571428571427
 40
-0.914285714285713
 40
-0.9
 40
-0.885714285714284
 40
-0.87142857142857
 40
-0.857142857142856
 40
-0.842857142857142
 40
-0.8285714285714281
 40
-0.8142857142857131
 40
-0.8
 40
-0.7857142857142849
 40
-0.7714285714285709
 40
-0.7571428571428559
 40
-0.742857142857142
 40
-0.728571428571428
 40
-0.714285714285714
 40
-0.7
 40
-0.6857142857142849
 40
-0.6714285714285709
 40
-0.6571428571428569
 40
-0.642857142857142
 40
-0.628571428571428
 40
-0.614285714285714
 40
-0.6
 40
-0.585714285714286
 40
-0.571428571428571
 40
-0.5571428571428569
 40
-0.542857142857143
 40
-0.528571428571429
 40
-0.514285714285714
 40
-0.5
 40
-0.485714285714286
 40
-0.471428571428572
 40
-0.457142857142857
 40
-0.442857142857143
 40
-0.428571428571429
 40
-0.414285714285714
 40
-0.4
 40
-0.385714285714286
 40
-0.371428571428571
 40
-0.357142857142857
 40
-0.342857142857143
 40
-0.328571428571429
 40
-0.314285714285714
 40
-0.3
 40
-0.285714285714286
 40
-0.271428571428571
 40
-0.257142857142857
 40
-0.242857142857143
 40
-0.228571428571429
 40
-0.214285714285714
 40
-0.2
 40
-0.185714285714286
 40
-0.171428571428571
 40
-0.157142857142857
 40
-0.142857142857143
 40
-0.128571428571429
 40
-0.114285714285714
 40
-0.1
 40
-0.0857142857142857
 40
-0.0714285714285714
 40
-0.0571428571428571
 40
-0.0428571428571429
 40
-0.0285714285714286
 40
-0.0142857142857143
 40
0.0
 40
0.0
 40
0.0
 40
0.0
 40
0.0
 40
0.0
 10
15.5284765493246
 20
-8.069474335858299
 30
0.0
 41
1.0
 10
15.5233193138114
 20
-8.058990731512178
 30
0.0
 41
1.0
 10
15.5129801811666
 20
-8.038048138514709
 30
0.0
 41
1.0
 10
15.4973974973529
 20
-8.00670809611014
 30
0.0
 41
1.0
 10
15.4764725666743
 20
-7.96506911609313
 30
0.0
 41
1.0
 10
15.450069429066
 20
-7.913267052765401
 30
0.0
 41
1.0
 10
15.4234189806667
 20
-7.861712427196769
 30
0.0
 41
1.0
 10
15.3965209216254
 20
-7.810406423876939
 30
0.0
 41
1.0
 10
15.3693750795526
 20
-7.75935068162071
 30
0.0
 41
1.0
 10
15.341981521441
 20
-7.70854736068021
 30
0.0
 41
1.0
 10
15.3143405019761
 20
-7.657999026215501
 30
0.0
 41
1.0
 10
15.2864523857179
 20
-7.60770850202162
 30
0.0
 41
1.0
 10
15.2583175782325
 20
-7.557678727751879
 30
0.0
 41
1.0
 10
15.2299364600841
 20
-7.50791262542215
 30
0.0
 41
1.0
 10
15.2013093094333
 20
-7.45841292838026
 30
0.0
 41
1.0
 10
15.1724363006031
 20
-7.409182206800391
 30
0.0
 41
1.0
 10
15.1433175334631
 20
-7.36022296819386
 30
0.0
 41
1.0
 10
15.1139530551018
 20
-7.31153773515321
 30
0.0
 41
1.0
 10
15.0843428848028
 20
-7.26312912258865
 30
0.0
 41
1.0
 10
15.0544870434844
 20
-7.21499993314817
 30
0.0
 41
1.0
 10
15.0243855640338
 20
-7.16715315254889
 30
0.0
 41
1.0
 10
14.9940384879663
 20
-7.11959187945289
 30
0.0
 41
1.0
 10
14.9634458691181
 20
-7.07231926891271
 30
0.0
 41
1.0
 10
14.9326077735464
 20
-7.02533847786692
 30
0.0
 41
1.0
 10
14.9015242895373
 20
-6.978652583969721
 30
0.0
 41
1.0
 10
14.8701955088218
 20
-6.93226460795425
 30
0.0
 41
1.0
 10
14.8386214832332
 20
-6.886177631048961
 30
0.0
 41
1.0
 10
14.806802186533
 20
-6.84039489131794
 30
0.0
 41
1.0
 10
14.7747374827111
 20
-6.79491987112086
 30
0.0
 41
1.0
 10
14.7424270764881
 20
-6.749756424041539
 30
0.0
 41
1.0
 10
14.7098705345915
 20
-6.70490874436112
 30
0.0
 41
1.0
 10
14.6770673885979
 20
-6.660381151940951
 30
0.0
 41
1.0
 10
14.6440172265288
 20
-6.616177906552799
 30
0.0
 41
1.0
 10
14.6107197733969
 20
-6.572303042447849
 30
0.0
 41
1.0
 10
14.5771750206388
 20
-6.52876010820249
 30
0.0
 41
1.0
 10
14.5433831871967
 20
-6.48555224007311
 30
0.0
 41
1.0
 10
14.509344448499
 20
-6.44268269599982
 30
0.0
 41
1.0
 10
14.4750587050833
 20
-6.40015531137993
 30
0.0
 41
1.0
 10
14.4405253759541
 20
-6.357974907956409
 30
0.0
 41
1.0
 10
14.4057430880917
 20
-6.31614790608495
 30
0.0
 41
1.0
 10
14.3707097419381
 20
-6.27468220333837
 30
0.0
 41
1.0
 10
14.335423123584
 20
-6.23358598538912
 30
0.0
 41
1.0
 10
14.2998814331683
 20
-6.19286670185148
 30
0.0
 41
1.0
 10
14.2640837531135
 20
-6.15253015926011
 30
0.0
 41
1.0
 10
14.2280307768776
 20
-6.11257910848579
 30
0.0
 41
1.0
 10
14.1917246102502
 20
-6.073013635870299
 30
0.0
 41
1.0
 10
14.1551672893169
 20
-6.03383405030034
 30
0.0
 41
1.0
 10
14.118359500586
 20
-5.995043377549339
 30
0.0
 41
1.0
 10
14.0812994565481
 20
-5.95664955376323
 30
0.0
 41
1.0
 10
14.043981130643
 20
-5.91866886329327
 30
0.0
 41
1.0
 10
14.006394863586
 20
-5.88112477266094
 30
0.0
 41
1.0
 10
13.9685307662174
 20
-5.84404133557969
 30
0.0
 41
1.0
 10
13.9303816873349
 20
-5.807437442325011
 30
0.0
 41
1.0
 10
13.8919457653534
 20
-5.771321879807671
 30
0.0
 41
1.0
 10
13.8532306255478
 20
-5.73568519194852
 30
0.0
 41
1.0
 10
13.814251141054
 20
-5.700504056532759
 30
0.0
 41
1.0
 10
13.7750213360728
 20
-5.66575705483834
 30
0.0
 41
1.0
 10
13.7355472441521
 20
-5.631438582293961
 30
0.0
 41
1.0
 10
13.695820796235
 20
-5.597570762466971
 30
0.0
 41
1.0
 10
13.6558097186746
 20
-5.56422310743184
 30
0.0
 41
1.0
 10
13.6154648966494
 20
-5.53149827564783
 30
0.0
 41
1.0
 10
13.5747387420693
 20
-5.49949649093529
 30
0.0
 41
1.0
 10
13.5336016990853
 20
-5.46828353559778
 30
0.0
 41
1.0
 10
13.4920564005173
 20
-5.437863399231441
 30
0.0
 41
1.0
 10
13.4501608220269
 20
-5.40813322482775
 30
0.0
 41
1.0
 10
13.408002748122
 20
-5.37893396103472
 30
0.0
 41
1.0
 10
13.3656553865605
 20
-5.35013802435942
 30
0.0
 41
1.0
 10
13.3231372256531
 20
-5.32172871262062
 30
0.0
 41
1.0
 10
13.2803742394523
 20
-5.293874806267
 30
0.0
 41
1.0
 10
13.2371500277008
 20
-5.267029402809389
 30
0.0
 41
1.0
 10
13.1931638561454
 20
-5.24181241759123
 30
0.0
 41
1.0
 10
13.1571194666405
 20
-5.22344540527423
 30
0.0
 41
1.0
 10
13.129495529139
 20
-5.210909866024779
 30
0.0
 41
1.0
 10
13.1108030336495
 20
-5.20313240506179
 30
0.0
 41
1.0
 10
13.101387650486
 20
-5.199388568147009
 30
0.0
 41
1.0
  0
LINE
  5
10000145
102
{ACAD_XDICTIONARY
360
10000146
102
}
330
1F
100
AcDbEntity
  8
VISIBLE
100
AcDbLine
 10
13.101387650486
 20
-5.199388568147
 30
0.0
 11
11.537004879811
 21
-4.57734336148994
 31
0.0
  0
ARC
  5
10000149
102
{ACAD_XDICTIONARY
360
1000014A
102
}
330
1F
100
AcDbEntity
  8
VISIBLE
100
AcDbCircle
 10
11.7114047343069
 20
-4.13874480842369
 30
0.0
 40
0.472
100
AcDbArc
 50
160.5368772719976
 51
248.3157572449228
  0
ARC
  5
1000014F
102
{ACAD_XDICTIONARY
360
10000150
102
}
330
1F
100
AcDbEntity
  8
VISIBLE
100
AcDbCircle
 10
0.0
 20
0.0
 30
0.0
 40
11.9492
100
AcDbArc
 50
340.5368772719953
 51
349.4631227280046
  0
ARC
  5
10000155
102
{ACAD_XDICTIONARY
360
10000156
102
}
330
1F
100
AcDbEntity
  8
VISIBLE
100
AcDbCircle
 10
12.211746418123
 20
-2.27144422327757
 30
0.0
 40
0.472
100
AcDbArc
 50
81.68424275508535
 51
169.4631227280061
  0
LINE
  5
1000015B
102
{ACAD_XDICTIONARY
360
1000015C
102
}
330
1F
100
AcDbEntity
  8
VISIBLE
100
AcDbLine
 10
12.2800109902463
 20
-1.80440680701115
 30
0.0
 11
13.9458288142221
 21
-2.0478912410813
 31
0.0
  0
SPLINE
  5
1000015F
102
{ACAD_XDICTIONARY
360
10000160
102
}
330
1F
100
AcDbEntity
  8
VISIBLE
100
AcDbSpline
210
0.0
220
0.0
230
1.0
 70
    12
 71
     5
 72
    81
 73
    75
 74
     0
 42
0.0000000001
 43
0.00000001
 40
0.0
 40
0.0
 40
0.0
 40
0.0
 40
0.0
 40
0.0
 40
0.0142857142857143
 40
0.0285714285714286
 40
0.0428571428571429
 40
0.0571428571428571
 40
0.0714285714285714
 40
0.0857142857142857
 40
0.1
 40
0.114285714285714
 40
0.128571428571429
 40
0.142857142857143
 40
0.157142857142857
 40
0.171428571428571
 40
0.185714285714286
 40
0.2
 40
0.214285714285714
 40
0.228571428571429
 40
0.242857142857143
 40
0.257142857142857
 40
0.271428571428571
 40
0.285714285714286
 40
0.3
 40
0.314285714285714
 40
0.328571428571429
 40
0.342857142857143
 40
0.357142857142857
 40
0.371428571428571
 40
0.385714285714286
 40
0.4
 40
0.414285714285714
 40
0.428571428571429
 40
0.442857142857143
 40
0.457142857142857
 40
0.471428571428572
 40
0.485714285714286
 40
0.5
 40
0.514285714285714
 40
0.528571428571429
 40
0.542857142857143
 40
0.5571428571428569
 40
0.571428571428571
 40
0.585714285714286
 40
0.6
 40
0.614285714285714
 40
0.628571428571428
 40
0.642857142857142
 40
0.6571428571428569
 40
0.6714285714285709
 40
0.6857142857142849
 40
0.7
 40
0.714285714285714
 40
0.728571428571428
 40
0.742857142857142
 40
0.7571428571428559
 40
0.7714285714285709
 40
0.7857142857142849
 40
0.8
 40
0.8142857142857131
 40
0.8285714285714281
 40
0.842857142857142
 40
0.857142857142856
 40
0.87142857142857
 40
0.885714285714284
 40
0.9
 40
0.914285714285713
 40
0.928571428571427
 40
0.9428571428571411
 40
0.957142857142856
 40
0.97142857142857
 40
0.985714285714284
 40
1.0
 40
1.0
 40
1.0
 40
1.0
 40
1.0
 40
1.0
 10
13.9458288142221
 20
-2.0478912410813
 30
0.0
 41
1.0
 10
13.9558546936855
 20
-2.04935667478723
 30
0.0
 41
1.0
 10
13.975931600121
 20
-2.05196744376108
 30
0.0
 41
1.0
 10
14.0061224013745
 20
-2.054923317071661
 30
0.0
 41
1.0
 10
14.0465212645082
 20
-2.057039212566
 30
0.0
 41
1.0
 10
14.0972228990995
 20
-2.05719374853789
 30
0.0
 41
1.0
 10
14.1480788662636
 20
-2.05555705304451
 30
0.0
 41
1.0
 10
14.199039651832
 20
-2.05281635564806
 30
0.0
 41
1.0
 10
14.2500661151694
 20
-2.04947225043193
 30
0.0
 41
1.0
 10
14.3011379744026
 20
-2.0457079185261
 30
0.0
 41
1.0
 10
14.3522475692753
 20
-2.04149965126195
 30
0.0
 41
1.0
 10
14.4033952917561
 20
-2.03670035421462
 30
0.0
 41
1.0
 10
14.454584643907
 20
-2.03112839261881
 30
0.0
 41
1.0
 10
14.5058168458364
 20
-2.0246657018613
 30
0.0
 41
1.0
 10
14.5570876226576
 20
-2.01731442062386
 30
0.0
 41
1.0
 10
14.6083896793345
 20
-2.00914629597694
 30
0.0
 41
1.0
 10
14.6597141164522
 20
-2.0002719183401
 30
0.0
 41
1.0
 10
14.711052139464
 20
-1.99080474995766
 30
0.0
 41
1.0
 10
14.7623969421309
 20
-1.98082112687549
 30
0.0
 41
1.0
 10
14.8137444506773
 20
-1.97034424319341
 30
0.0
 41
1.0
 10
14.8650922421832
 20
-1.95936622843625
 30
0.0
 41
1.0
 10
14.9164388806956
 20
-1.94786152134633
 30
0.0
 41
1.0
 10
14.967783146808
 20
-1.93580248772505
 30
0.0
 41
1.0
 10
15.0191231648786
 20
-1.92317712573035
 30
0.0
 41
1.0
 10
15.0704561536318
 20
-1.90999397584267
 30
0.0
 41
1.0
 10
15.1217788610528
 20
-1.89627297312156
 30
0.0
 41
1.0
 10
15.1730878245483
 20
-1.88203989327388
 30
0.0
 41
1.0
 10
15.2243796760436
 20
-1.86731988854564
 30
0.0
 41
1.0
 10
15.2756514925171
 20
-1.8521300748788
 30
0.0
 41
1.0
 10
15.3269008539246
 20
-1.83647821893213
 30
0.0
 41
1.0
 10
15.3781256528457
 20
-1.82036659784808
 30
0.0
 41
1.0
 10
15.4293239715352
 20
-1.80379446108758
 30
0.0
 41
1.0
 10
15.4804939431549
 20
-1.78676083053
 30
0.0
 41
1.0
 10
15.5316335917172
 20
-1.76926774177037
 30
0.0
 41
1.0
 10
15.5827408086001
 20
-1.75132068220392
 30
0.0
 41
1.0
 10
15.6338134277219
 20
-1.73292700331638
 30
0.0
 41
1.0
 10
15.6848492735483
 20
-1.71409490106277
 30
0.0
 41
1.0
 10
15.7358462155631
 20
-1.69483226472071
 30
0.0
 41
1.0
 10
15.7868022326587
 20
-1.67514534099124
 30
0.0
 41
1.0
 10
15.8377154171204
 20
-1.65503859612398
 30
0.0
 41
1.0
 10
15.8885839373864
 20
-1.63451540140162
 30
0.0
 41
1.0
 10
15.9394060125613
 20
-1.61357849056887
 30
0.0
 41
1.0
 10
15.9901798849073
 20
-1.59223047023234
 30
0.0
 41
1.0
 10
16.0409037875524
 20
-1.57047441783104
 30
0.0
 41
1.0
 10
16.091575941517
 20
-1.54831396462259
 30
0.0
 41
1.0
 10
16.142194573699
 20
-1.52575300566689
 30
0.0
 41
1.0
 10
16.1927579298344
 20
-1.50279551628519
 30
0.0
 41
1.0
 10
16.2432642880075
 20
-1.47944534546785
 30
0.0
 41
1.0
 10
16.293711977146
 20
-1.45570597815609
 30
0.0
 41
1.0
 10
16.3440993738581
 20
-1.43158049816676
 30
0.0
 41
1.0
 10
16.394424881835
 20
-1.40707172286495
 30
0.0
 41
1.0
 10
16.4446869155736
 20
-1.38218229475614
 30
0.0
 41
1.0
 10
16.494883885266
 20
-1.35691478400647
 30
0.0
 41
1.0
 10
16.5450141756268
 20
-1.33127181179954
 30
0.0
 41
1.0
 10
16.5950761509799
 20
-1.30525607909584
 30
0.0
 41
1.0
 10
16.6450681871753
 20
-1.27887029133288
 30
0.0
 41
1.0
 10
16.6949886989286
 20
-1.25211711127305
 30
0.0
 41
1.0
 10
16.7448361649002
 20
-1.22499910817967
 30
0.0
 41
1.0
 10
16.7946091656503
 20
-1.19751869875797
 30
0.0
 41
1.0
 10
16.8443063770237
 20
-1.16967813794478
 30
0.0
 41
1.0
 10
16.8939264969443
 20
-1.14147958682507
 30
0.0
 41
1.0
 10
16.9434681851668
 20
-1.11292516703255
 30
0.0
 41
1.0
 10
16.992930005636
 20
-1.0840170172419
 30
0.0
 41
1.0
 10
17.0423103507837
 20
-1.05475736552138
 30
0.0
 41
1.0
 10
17.091607430024
 20
-1.02514855212895
 30
0.0
 41
1.0
 10
17.1408194222995
 20
-0.9951929200959659
 30
0.0
 41
1.0
 10
17.1899445999944
 20
-0.9648927326206749
 30
0.0
 41
1.0
 10
17.2389814599646
 20
-0.934250083854098
 30
0.0
 41
1.0
 10
17.2879288640668
 20
-0.903266811133135
 30
0.0
 41
1.0
 10
17.3367861421872
 20
-0.8719444199077729
 30
0.0
 41
1.0
 10
17.3855529617594
 20
-0.8402840859016201
 30
0.0
 41
1.0
 10
17.424493973308
 20
-0.814686136758529
 30
0.0
 41
1.0
 10
17.4536589945522
 20
-0.7953362057873641
 30
0.0
 41
1.0
 10
17.4730842425744
 20
-0.782368954552818
 30
0.0
 41
1.0
 10
17.4827923417152
 20
-0.775868504622462
 30
0.0
 41
1.0
  0
ARC
  5
10000163
102
{ACAD_XDICTIONARY
360
10000164
102
}
330
1F
100
AcDbEntity
  8
VISIBLE
100
AcDbCircle
 10
0.0000000000001799
 20
0.0
 30
0.0
 40
17.5
100
AcDbArc
 50
357.4589390306315
 51
2.541060969368451
  0
SPLINE
  5
10000169
102
{ACAD_XDICTIONARY
360
1000016A
102
}
330
1F
100
AcDbEntity
  8
VISIBLE
100
AcDbSpline
210
0.0
220
0.0
230
1.0
 70
    12
 71
     5
 72
    81
 73
    75
 74
     0
 42
0.0000000001
 43
0.00000001
 40
-1.0
 40
-1.0
 40
-1.0
 40
-1.0
 40
-1.0
 40
-1.0
 40
-0.985714285714284
 40
-0.97142857142857
 40
-0.957142857142856
 40
-0.9428571428571411
 40
-0.928571428571427
 40
-0.914285714285713
 40
-0.9
 40
-0.885714285714284
 40
-0.87142857142857
 40
-0.857142857142856
 40
-0.842857142857142
 40
-0.8285714285714281
 40
-0.8142857142857131
 40
-0.8
 40
-0.7857142857142849
 40
-0.7714285714285709
 40
-0.7571428571428559
 40
-0.742857142857142
 40
-0.728571428571428
 40
-0.714285714285714
 40
-0.7
 40
-0.6857142857142849
 40
-0.6714285714285709
 40
-0.6571428571428569
 40
-0.642857142857142
 40
-0.628571428571428
 40
-0.614285714285714
 40
-0.6
 40
-0.585714285714286
 40
-0.571428571428571
 40
-0.5571428571428569
 40
-0.542857142857143
 40
-0.528571428571429
 40
-0.514285714285714
 40
-0.5
 40
-0.485714285714286
 40
-0.471428571428572
 40
-0.457142857142857
 40
-0.442857142857143
 40
-0.428571428571429
 40
-0.414285714285714
 40
-0.4
 40
-0.385714285714286
 40
-0.371428571428571
 40
-0.357142857142857
 40
-0.342857142857143
 40
-0.328571428571429
 40
-0.314285714285714
 40
-0.3
 40
-0.285714285714286
 40
-0.271428571428571
 40
-0.257142857142857
 40
-0.242857142857143
 40
-0.228571428571429
 40
-0.214285714285714
 40
-0.2
 40
-0.185714285714286
 40
-0.171428571428571
 40
-0.157142857142857
 40
-0.142857142857143
 40
-0.128571428571429
 40
-0.114285714285714
 40
-0.1
 40
-0.0857142857142857
 40
-0.0714285714285714
 40
-0.0571428571428571
 40
-0.0428571428571429
 40
-0.0285714285714286
 40
-0.0142857142857143
 40
0.0
 40
0.0
 40
0.0
 40
0.0
 40
0.0
 40
0.0
 10
17.4827923417152
 20
0.775868504622458
 30
0.0
 41
1.0
 10
17.4730842425744
 20
0.782368954552813
 30
0.0
 41
1.0
 10
17.4536589945522
 20
0.7953362057873591
 30
0.0
 41
1.0
 10
17.424493973308
 20
0.814686136758526
 30
0.0
 41
1.0
 10
17.3855529617594
 20
0.8402840859016171
 30
0.0
 41
1.0
 10
17.3367861421872
 20
0.8719444199077689
 30
0.0
 41
1.0
 10
17.2879288640668
 20
0.903266811133131
 30
0.0
 41
1.0
 10
17.2389814599646
 20
0.9342500838540949
 30
0.0
 41
1.0
 10
17.1899445999944
 20
0.964892732620671
 30
0.0
 41
1.0
 10
17.1408194222995
 20
0.9951929200959629
 30
0.0
 41
1.0
 10
17.091607430024
 20
1.02514855212895
 30
0.0
 41
1.0
 10
17.0423103507837
 20
1.05475736552138
 30
0.0
 41
1.0
 10
16.992930005636
 20
1.0840170172419
 30
0.0
 41
1.0
 10
16.9434681851668
 20
1.11292516703255
 30
0.0
 41
1.0
 10
16.8939264969443
 20
1.14147958682507
 30
0.0
 41
1.0
 10
16.8443063770237
 20
1.16967813794478
 30
0.0
 41
1.0
 10
16.7946091656503
 20
1.19751869875797
 30
0.0
 41
1.0
 10
16.7448361649002
 20
1.22499910817967
 30
0.0
 41
1.0
 10
16.6949886989286
 20
1.25211711127305
 30
0.0
 41
1.0
 10
16.6450681871753
 20
1.27887029133288
 30
0.0
 41
1.0
 10
16.5950761509799
 20
1.30525607909584
 30
0.0
 41
1.0
 10
16.5450141756268
 20
1.33127181179954
 30
0.0
 41
1.0
 10
16.494883885266
 20
1.35691478400646
 30
0.0
 41
1.0
 10
16.4446869155736
 20
1.38218229475614
 30
0.0
 41
1.0
 10
16.394424881835
 20
1.40707172286495
 30
0.0
 41
1.0
 10
16.3440993738581
 20
1.43158049816676
 30
0.0
 41
1.0
 10
16.293711977146
 20
1.45570597815608
 30
0.0
 41
1.0
 10
16.2432642880075
 20
1.47944534546785
 30
0.0
 41
1.0
 10
16.1927579298344
 20
1.50279551628519
 30
0.0
 41
1.0
 10
16.142194573699
 20
1.52575300566689
 30
0.0
 41
1.0
 10
16.091575941517
 20
1.54831396462259
 30
0.0
 41
1.0
 10
16.0409037875524
 20
1.57047441783103
 30
0.0
 41
1.0
 10
15.9901798849073
 20
1.59223047023234
 30
0.0
 41
1.0
 10
15.9394060125613
 20
1.61357849056887
 30
0.0
 41
1.0
 10
15.8885839373864
 20
1.63451540140161
 30
0.0
 41
1.0
 10
15.8377154171204
 20
1.65503859612397
 30
0.0
 41
1.0
 10
15.7868022326587
 20
1.67514534099124
 30
0.0
 41
1.0
 10
15.7358462155631
 20
1.6948322647207
 30
0.0
 41
1.0
 10
15.6848492735483
 20
1.71409490106277
 30
0.0
 41
1.0
 10
15.6338134277219
 20
1.73292700331638
 30
0.0
 41
1.0
 10
15.5827408086001
 20
1.75132068220391
 30
0.0
 41
1.0
 10
15.5316335917172
 20
1.76926774177037
 30
0.0
 41
1.0
 10
15.4804939431549
 20
1.78676083053
 30
0.0
 41
1.0
 10
15.4293239715352
 20
1.80379446108757
 30
0.0
 41
1.0
 10
15.3781256528457
 20
1.82036659784808
 30
0.0
 41
1.0
 10
15.3269008539246
 20
1.83647821893213
 30
0.0
 41
1.0
 10
15.2756514925171
 20
1.8521300748788
 30
0.0
 41
1.0
 10
15.2243796760436
 20
1.86731988854564
 30
0.0
 41
1.0
 10
15.1730878245483
 20
1.88203989327388
 30
0.0
 41
1.0
 10
15.1217788610528
 20
1.89627297312156
 30
0.0
 41
1.0
 10
15.0704561536318
 20
1.90999397584266
 30
0.0
 41
1.0
 10
15.0191231648786
 20
1.92317712573035
 30
0.0
 41
1.0
 10
14.967783146808
 20
1.93580248772504
 30
0.0
 41
1.0
 10
14.9164388806956
 20
1.94786152134632
 30
0.0
 41
1.0
 10
14.8650922421832
 20
1.95936622843625
 30
0.0
 41
1.0
 10
14.8137444506773
 20
1.97034424319341
 30
0.0
 41
1.0
 10
14.7623969421309
 20
1.98082112687549
 30
0.0
 41
1.0
 10
14.711052139464
 20
1.99080474995765
 30
0.0
 41
1.0
 10
14.6597141164522
 20
2.00027191834009
 30
0.0
 41
1.0
 10
14.6083896793345
 20
2.00914629597693
 30
0.0
 41
1.0
 10
14.5570876226576
 20
2.01731442062386
 30
0.0
 41
1.0
 10
14.5058168458364
 20
2.0246657018613
 30
0.0
 41
1.0
 10
14.454584643907
 20
2.03112839261881
 30
0.0
 41
1.0
 10
14.4033952917561
 20
2.03670035421461
 30
0.0
 41
1.0
 10
14.3522475692753
 20
2.04149965126194
 30
0.0
 41
1.0
 10
14.3011379744026
 20
2.04570791852609
 30
0.0
 41
1.0
 10
14.2500661151694
 20
2.04947225043192
 30
0.0
 41
1.0
 10
14.199039651832
 20
2.05281635564806
 30
0.0
 41
1.0
 10
14.1480788662636
 20
2.0555570530445
 30
0.0
 41
1.0
 10
14.0972228990995
 20
2.05719374853789
 30
0.0
 41
1.0
 10
14.0465212645082
 20
2.05703921256599
 30
0.0
 41
1.0
 10
14.0061224013745
 20
2.054923317071661
 30
0.0
 41
1.0
 10
13.975931600121
 20
2.05196744376108
 30
0.0
 41
1.0
 10
13.9558546936855
 20
2.04935667478722
 30
0.0
 41
1.0
 10
13.9458288142221
 20
2.0478912410813
 30
0.0
 41
1.0
  0
LINE
  5
1000016D
102
{ACAD_XDICTIONARY
360
1000016E
102
}
330
1F
100
AcDbEntity
  8
VISIBLE
100
AcDbLine
 10
13.9458288142221
 20
2.0478912410813
 30
0.0
 11
12.2800109902463
 21
1.80440680701115
 31
0.0
  0
ARC
  5
10000171
102
{ACAD_XDICTIONARY
360
10000172
102
}
330
1F
100
AcDbEntity
  8
VISIBLE
100
AcDbCircle
 10
12.211746418123
 20
2.27144422327757
 30
0.0
 40
0.472
100
AcDbArc
 50
190.5368772719952
 51
278.3157572449147
  0
ARC
  5
10000177
102
{ACAD_XDICTIONARY
360
10000178
102
}
330
1F
100
AcDbEntity
  8
VISIBLE
100
AcDbCircle
 10
0.0
 20
0.0
 30
0.0
 40
11.9492
100
AcDbArc
 50
10.53687727199534
 51
19.46312272800463
  0
ARC
  5
1000017D
102
{ACAD_XDICTIONARY
360
1000017E
102
}
330
1F
100
AcDbEntity
  8
VISIBLE
100
AcDbCircle
 10
11.7114047343069
 20
4.13874480842368
 30
0.0
 40
0.472
100
AcDbArc
 50
111.6842427550773
 51
199.4631227280023
  0
LINE
  5
10000183
102
{ACAD_XDICTIONARY
360
10000184
102
}
330
1F
100
AcDbEntity
  8
VISIBLE
100
AcDbLine
 10
11.537004879811
 20
4.577343361489929
 30
0.0
 11
13.101387650486
 21
5.19938856814699
 31
0.0
  0
SPLINE
  5
10000187
102
{ACAD_XDICTIONARY
360
10000188
102
}
330
1F
100
AcDbEntity
  8
VISIBLE
100
AcDbSpline
210
0.0
220
0.0
230
1.0
 70
    12
 71
     5
 72
    81
 73
    75
 74
     0
 42
0.0000000001
 43
0.00000001
 40
0.0
 40
0.0
 40
0.0
 40
0.0
 40
0.0
 40
0.0
 40
0.0142857142857143
 40
0.0285714285714286
 40
0.0428571428571429
 40
0.0571428571428571
 40
0.0714285714285714
 40
0.0857142857142857
 40
0.1
 40
0.114285714285714
 40
0.128571428571429
 40
0.142857142857143
 40
0.157142857142857
 40
0.171428571428571
 40
0.185714285714286
 40
0.2
 40
0.214285714285714
 40
0.228571428571429
 40
0.242857142857143
 40
0.257142857142857
 40
0.271428571428571
 40
0.285714285714286
 40
0.3
 40
0.314285714285714
 40
0.328571428571429
 40
0.342857142857143
 40
0.357142857142857
 40
0.371428571428571
 40
0.385714285714286
 40
0.4
 40
0.414285714285714
 40
0.428571428571429
 40
0.442857142857143
 40
0.457142857142857
 40
0.471428571428572
 40
0.485714285714286
 40
0.5
 40
0.514285714285714
 40
0.528571428571429
 40
0.542857142857143
 40
0.5571428571428569
 40
0.571428571428571
 40
0.585714285714286
 40
0.6
 40
0.614285714285714
 40
0.628571428571428
 40
0.642857142857142
 40
0.6571428571428569
 40
0.6714285714285709
 40
0.6857142857142849
 40
0.7
 40
0.714285714285714
 40
0.728571428571428
 40
0.742857142857142
 40
0.7571428571428559
 40
0.7714285714285709
 40
0.7857142857142849
 40
0.8
 40
0.8142857142857131
 40
0.8285714285714281
 40
0.842857142857142
 40
0.857142857142856
 40
0.87142857142857
 40
0.885714285714284
 40
0.9
 40
0.914285714285713
 40
0.928571428571427
 40
0.9428571428571411
 40
0.957142857142856
 40
0.97142857142857
 40
0.985714285714284
 40
1.0
 40
1.0
 40
1.0
 40
1.0
 40
1.0
 40
1.0
 10
13.101387650486
 20
5.199388568147
 30
0.0
 41
1.0
 10
13.1108030336495
 20
5.20313240506178
 30
0.0
 41
1.0
 10
13.129495529139
 20
5.21090986602477
 30
0.0
 41
1.0
 10
13.1571194666405
 20
5.22344540527422
 30
0.0
 41
1.0
 10
13.1931638561455
 20
5.24181241759123
 30
0.0
 41
1.0
 10
13.2371500277008
 20
5.26702940280938
 30
0.0
 41
1.0
 10
13.2803742394523
 20
5.293874806266991
 30
0.0
 41
1.0
 10
13.3231372256531
 20
5.321728712620611
 30
0.0
 41
1.0
 10
13.3656553865605
 20
5.35013802435941
 30
0.0
 41
1.0
 10
13.408002748122
 20
5.37893396103471
 30
0.0
 41
1.0
 10
13.4501608220269
 20
5.40813322482774
 30
0.0
 41
1.0
 10
13.4920564005173
 20
5.43786339923143
 30
0.0
 41
1.0
 10
13.5336016990853
 20
5.468283535597769
 30
0.0
 41
1.0
 10
13.5747387420693
 20
5.49949649093528
 30
0.0
 41
1.0
 10
13.6154648966494
 20
5.53149827564782
 30
0.0
 41
1.0
 10
13.6558097186746
 20
5.56422310743184
 30
0.0
 41
1.0
 10
13.695820796235
 20
5.59757076246696
 30
0.0
 41
1.0
 10
13.7355472441521
 20
5.63143858229395
 30
0.0
 41
1.0
 10
13.7750213360728
 20
5.66575705483833
 30
0.0
 41
1.0
 10
13.814251141054
 20
5.70050405653275
 30
0.0
 41
1.0
 10
13.8532306255478
 20
5.73568519194851
 30
0.0
 41
1.0
 10
13.8919457653534
 20
5.77132187980766
 30
0.0
 41
1.0
 10
13.9303816873349
 20
5.807437442325
 30
0.0
 41
1.0
 10
13.9685307662174
 20
5.844041335579679
 30
0.0
 41
1.0
 10
14.006394863586
 20
5.88112477266093
 30
0.0
 41
1.0
 10
14.043981130643
 20
5.91866886329326
 30
0.0
 41
1.0
 10
14.0812994565481
 20
5.95664955376322
 30
0.0
 41
1.0
 10
14.1183595005861
 20
5.995043377549329
 30
0.0
 41
1.0
 10
14.1551672893169
 20
6.03383405030034
 30
0.0
 41
1.0
 10
14.1917246102502
 20
6.07301363587029
 30
0.0
 41
1.0
 10
14.2280307768776
 20
6.112579108485781
 30
0.0
 41
1.0
 10
14.2640837531135
 20
6.1525301592601
 30
0.0
 41
1.0
 10
14.2998814331683
 20
6.19286670185147
 30
0.0
 41
1.0
 10
14.335423123584
 20
6.23358598538911
 30
0.0
 41
1.0
 10
14.3707097419381
 20
6.27468220333836
 30
0.0
 41
1.0
 10
14.4057430880917
 20
6.31614790608494
 30
0.0
 41
1.0
 10
14.4405253759541
 20
6.3579749079564
 30
0.0
 41
1.0
 10
14.4750587050833
 20
6.40015531137992
 30
0.0
 41
1.0
 10
14.509344448499
 20
6.442682695999809
 30
0.0
 41
1.0
 10
14.5433831871967
 20
6.4855522400731
 30
0.0
 41
1.0
 10
14.5771750206388
 20
6.528760108202481
 30
0.0
 41
1.0
 10
14.6107197733969
 20
6.57230304244784
 30
0.0
 41
1.0
 10
14.6440172265288
 20
6.616177906552791
 30
0.0
 41
1.0
 10
14.6770673885979
 20
6.66038115194094
 30
0.0
 41
1.0
 10
14.7098705345915
 20
6.704908744361111
 30
0.0
 41
1.0
 10
14.7424270764881
 20
6.74975642404153
 30
0.0
 41
1.0
 10
14.7747374827111
 20
6.79491987112085
 30
0.0
 41
1.0
 10
14.806802186533
 20
6.84039489131793
 30
0.0
 41
1.0
 10
14.8386214832332
 20
6.88617763104894
 30
0.0
 41
1.0
 10
14.8701955088218
 20
6.93226460795425
 30
0.0
 41
1.0
 10
14.9015242895373
 20
6.97865258396971
 30
0.0
 41
1.0
 10
14.9326077735464
 20
7.02533847786691
 30
0.0
 41
1.0
 10
14.9634458691181
 20
7.0723192689127
 30
0.0
 41
1.0
 10
14.9940384879663
 20
7.11959187945288
 30
0.0
 41
1.0
 10
15.0243855640338
 20
7.167153152548881
 30
0.0
 41
1.0
 10
15.0544870434844
 20
7.21499993314816
 30
0.0
 41
1.0
 10
15.0843428848028
 20
7.26312912258864
 30
0.0
 41
1.0
 10
15.1139530551018
 20
7.31153773515319
 30
0.0
 41
1.0
 10
15.1433175334631
 20
7.36022296819385
 30
0.0
 41
1.0
 10
15.1724363006031
 20
7.40918220680038
 30
0.0
 41
1.0
 10
15.2013093094333
 20
7.45841292838025
 30
0.0
 41
1.0
 10
15.2299364600841
 20
7.507912625422141
 30
0.0
 41
1.0
 10
15.2583175782326
 20
7.55767872775187
 30
0.0
 41
1.0
 10
15.2864523857179
 20
7.607708502021611
 30
0.0
 41
1.0
 10
15.3143405019761
 20
7.65799902621549
 30
0.0
 41
1.0
 10
15.341981521441
 20
7.7085473606802
 30
0.0
 41
1.0
 10
15.3693750795526
 20
7.7593506816207
 30
0.0
 41
1.0
 10
15.3965209216254
 20
7.81040642387693
 30
0.0
 41
1.0
 10
15.4234189806667
 20
7.86171242719676
 30
0.0
 41
1.0
 10
15.450069429066
 20
7.913267052765391
 30
0.0
 41
1.0
 10
15.4764725666743
 20
7.965069116093122
 30
0.0
 41
1.0
 10
15.4973974973529
 20
8.00670809611013
 30
0.0
 41
1.0
 10
15.5129801811666
 20
8.038048138514698
 30
0.0
 41
1.0
 10
15.5233193138114
 20
8.058990731512171
 30
0.0
 41
1.0
 10
15.5284765493246
 20
8.069474335858288
 30
0.0
 41
1.0
  0
ARC
  5
1000018B
102
{ACAD_XDICTIONARY
360
1000018C
102
}
330
1F
100
AcDbEntity
  8
VISIBLE
100
AcDbCircle
 10
0.0000000000001558
 20
0.0000000000000899
 30
0.0
 40
17.5
100
AcDbArc
 50
27.45893903063152
 51
32.54106096936837
  0
SPLINE
  5
10000191
102
{ACAD_XDICTIONARY
360
10000192
102
}
330
1F
100
AcDbEntity
  8
VISIBLE
100
AcDbSpline
210
0.0
220
0.0
230
1.0
 70
    12
 71
     5
 72
    81
 73
    75
 74
     0
 42
0.0000000001
 43
0.00000001
 40
-1.0
 40
-1.0
 40
-1.0
 40
-1.0
 40
-1.0
 40
-1.0
 40
-0.985714285714284
 40
-0.97142857142857
 40
-0.957142857142856
 40
-0.9428571428571411
 40
-0.928571428571427
 40
-0.914285714285713
 40
-0.9
 40
-0.885714285714284
 40
-0.87142857142857
 40
-0.857142857142856
 40
-0.842857142857142
 40
-0.8285714285714281
 40
-0.8142857142857131
 40
-0.8
 40
-0.7857142857142849
 40
-0.7714285714285709
 40
-0.7571428571428559
 40
-0.742857142857142
 40
-0.728571428571428
 40
-0.714285714285714
 40
-0.7
 40
-0.6857142857142849
 40
-0.6714285714285709
 40
-0.6571428571428569
 40
-0.642857142857142
 40
-0.628571428571428
 40
-0.614285714285714
 40
-0.6
 40
-0.585714285714286
 40
-0.571428571428571
 40
-0.5571428571428569
 40
-0.542857142857143
 40
-0.528571428571429
 40
-0.514285714285714
 40
-0.5
 40
-0.485714285714286
 40
-0.471428571428572
 40
-0.457142857142857
 40
-0.442857142857143
 40
-0.428571428571429
 40
-0.414285714285714
 40
-0.4
 40
-0.385714285714286
 40
-0.371428571428571
 40
-0.357142857142857
 40
-0.342857142857143
 40
-0.328571428571429
 40
-0.314285714285714
 40
-0.3
 40
-0.285714285714286
 40
-0.271428571428571
 40
-0.257142857142857
 40
-0.242857142857143
 40
-0.228571428571429
 40
-0.214285714285714
 40
-0.2
 40
-0.185714285714286
 40
-0.171428571428571
 40
-0.157142857142857
 40
-0.142857142857143
 40
-0.128571428571429
 40
-0.114285714285714
 40
-0.1
 40
-0.0857142857142857
 40
-0.0714285714285714
 40
-0.0571428571428571
 40
-0.0428571428571429
 40
-0.0285714285714286
 40
-0.0142857142857143
 40
0.0
 40
0.0
 40
0.0
 40
0.0
 40
0.0
 40
0.0
 10
14.7526080447022
 20
9.41331800585688
 30
0.0
 41
1.0
 10
14.7409503592586
 20
9.414093511062191
 30
0.0
 41
1.0
 10
14.7176439753793
 20
9.41561085603747
 30
0.0
 41
1.0
 10
14.6827113605944
 20
9.417785877197911
 30
0.0
 41
1.0
 10
14.6361884807726
 20
9.4204838456663
 30
0.0
 41
1.0
 10
14.5781250091583
 20
9.423519089421818
 30
0.0
 41
1.0
 10
14.5201521695336
 20
9.426216436870071
 30
0.0
 41
1.0
 10
14.4622708377713
 20
9.428575036087711
 30
0.0
 41
1.0
 10
14.4044823469319
 20
9.43059391837368
 30
0.0
 41
1.0
 10
14.3467886013451
 20
9.432272061619239
 30
0.0
 41
1.0
 10
14.2891919498472
 20
9.4336084038085
 30
0.0
 41
1.0
 10
14.2316950201965
 20
9.43460184876213
 30
0.0
 41
1.0
 10
14.1743005609907
 20
9.4352512778841
 30
0.0
 41
1.0
 10
14.1170112930516
 20
9.4355555597446
 30
0.0
 41
1.0
 10
14.0598297226082
 20
9.435513568564001
 30
0.0
 41
1.0
 10
14.0027581626583
 20
9.4351241702233
 30
0.0
 41
1.0
 10
13.9457988347051
 20
9.43438619745642
 30
0.0
 41
1.0
 10
13.8889539469221
 20
9.43329842974695
 30
0.0
 41
1.0
 10
13.8322257735297
 20
9.43185957633994
 30
0.0
 41
1.0
 10
13.7756167521516
 20
9.43006825402712
 30
0.0
 41
1.0
 10
13.719129484938
 20
9.42792299843101
 30
0.0
 41
1.0
 10
13.6627666761667
 20
9.42542229617395
 30
0.0
 41
1.0
 10
13.6065310851117
 20
9.422564616353249
 30
0.0
 41
1.0
 10
13.5504254787902
 20
9.419348437706681
 30
0.0
 41
1.0
 10
13.4944525666723
 20
9.41577229786528
 30
0.0
 41
1.0
 10
13.4386150106551
 20
9.41183476590383
 30
0.0
 41
1.0
 10
13.3829155050772
 20
9.407534346097032
 30
0.0
 41
1.0
 10
13.3273568410651
 20
9.40286939668954
 30
0.0
 41
1.0
 10
13.2719419664259
 20
9.3978380587135
 30
0.0
 41
1.0
 10
13.2166740708212
 20
9.392438149657501
 30
0.0
 41
1.0
 10
13.1615565699689
 20
9.386667197155829
 30
0.0
 41
1.0
 10
13.1065929707669
 20
9.38052263561145
 30
0.0
 41
1.0
 10
13.0517867562965
 20
9.37400197835449
 30
0.0
 41
1.0
 10
12.9971412828281
 20
9.367102970113418
 30
0.0
 41
1.0
 10
12.9426596192372
 20
9.359823829183911
 30
0.0
 41
1.0
 10
12.8883445910727
 20
9.35216317704729
 30
0.0
 41
1.0
 10
12.8341991075077
 20
9.34411953665893
 30
0.0
 41
1.0
 10
12.7802264403625
 20
9.33569090418321
 30
0.0
 41
1.0
 10
12.7264304748913
 20
9.32687436559187
 30
0.0
 41
1.0
 10
12.6728160847753
 20
9.31766552163699
 30
0.0
 41
1.0
 10
12.6193890597342
 20
9.308058605261731
 30
0.0
 41
1.0
 10
12.5661553818136
 20
9.29804760632805
 30
0.0
 41
1.0
 10
12.5131206026383
 20
9.287627241303401
 30
0.0
 41
1.0
 10
12.4602892920259
 20
9.27679381227511
 30
0.0
 41
1.0
 10
12.4076641790295
 20
9.265546544359951
 30
0.0
 41
1.0
 10
12.3552463913181
 20
9.25388721805433
 30
0.0
 41
1.0
 10
12.3030372144381
 20
9.24181744221677
 30
0.0
 41
1.0
 10
12.2510396120404
 20
9.229336298494228
 30
0.0
 41
1.0
 10
12.1992595632743
 20
9.21643827078509
 30
0.0
 41
1.0
 10
12.1477081575214
 20
9.203109997759489
 30
0.0
 41
1.0
 10
12.0964008877434
 20
9.1893313809709
 30
0.0
 41
1.0
 10
12.045353640487
 20
9.17508182929893
 30
0.0
 41
1.0
 10
11.9945791996098
 20
9.160345704483008
 30
0.0
 41
1.0
 10
11.9440842440071
 20
9.1451170008879
 30
0.0
 41
1.0
 10
11.8938643971115
 20
9.129407050234699
 30
0.0
 41
1.0
 10
11.8439068978606
 20
9.113240394144588
 30
0.0
 41
1.0
 10
11.7942002091973
 20
9.096639887292511
 30
0.0
 41
1.0
 10
11.7447424941944
 20
9.07961355717006
 30
0.0
 41
1.0
 10
11.6955488778949
 20
9.06214335398527
 30
0.0
 41
1.0
 10
11.6466634226977
 20
9.0441665719027
 30
0.0
 41
1.0
 10
11.5981504760255
 20
9.025589347009719
 30
0.0
 41
1.0
 10
11.550073040208
 20
9.00632035490115
 30
0.0
 41
1.0
 10
11.5024733064665
 20
8.98630110830925
 30
0.0
 41
1.0
 10
11.4553560463027
 20
8.96553189252467
 30
0.0
 41
1.0
 10
11.4086611707649
 20
8.94411434444757
 30
0.0
 41
1.0
 10
11.3622948295959
 20
8.922204013367889
 30
0.0
 41
1.0
 10
11.3161831361286
 20
8.89992809081003
 30
0.0
 41
1.0
 10
11.2703208700051
 20
8.87731093921143
 30
0.0
 41
1.0
 10
11.2248171864078
 20
8.854204059996631
 30
0.0
 41
1.0
 10
11.1799562791629
 20
8.83019349629007
 30
0.0
 41
1.0
 10
11.1361246435795
 20
8.804708846917011
 30
0.0
 41
1.0
 10
11.1021961495688
 20
8.782676996100301
 30
0.0
 41
1.0
 10
11.0775280853779
 20
8.76502173409619
 30
0.0
 41
1.0
 10
11.0614463588623
 20
8.75272228862367
 30
0.0
 41
1.0
 10
11.0534964094047
 20
8.746440246075101
 30
0.0
 41
1.0
  0
LINE
  5
10000195
102
{ACAD_XDICTIONARY
360
10000196
102
}
330
1F
100
AcDbEntity
  8
VISIBLE
100
AcDbLine
 10
11.0534964094047
 20
8.74644024607509
 30
0.0
 11
9.732598072799858
 21
7.70266762875639
 31
0.0
  0
ARC
  5
10000199
102
{ACAD_XDICTIONARY
360
1000019A
102
}
330
1F
100
AcDbEntity
  8
VISIBLE
100
AcDbCircle
 10
9.43996051102932
 20
8.073001609699261
 30
0.0
 40
0.472
100
AcDbArc
 50
220.5368772719955
 51
308.3157572449256
  0
ARC
  5
1000019F
102
{ACAD_XDICTIONARY
360
100001A0
102
}
330
1F
100
AcDbEntity
  8
VISIBLE
100
AcDbCircle
 10
0.0
 20
0.0
 30
0.0
 40
11.9492
100
AcDbArc
 50
40.53687727199535
 51
49.4631227280046
  0
ARC
  5
100001A5
102
{ACAD_XDICTIONARY
360
100001A6
102
}
330
1F
100
AcDbEntity
  8
VISIBLE
100
AcDbCircle
 10
8.07300160969927
 20
9.43996051102932
 30
0.0
 40
0.472
100
AcDbArc
 50
141.6842427550752
 51
229.4631227280047
  0
LINE
  5
100001AB
102
{ACAD_XDICTIONARY
360
100001AC
102
}
330
1F
100
AcDbEntity
  8
VISIBLE
100
AcDbLine
 10
7.7026676287564
 20
9.73259807279985
 30
0.0
 11
8.746440246075101
 21
11.0534964094047
 31
0.0
  0
SPLINE
  5
100001AF
102
{ACAD_XDICTIONARY
360
100001B0
102
}
330
1F
100
AcDbEntity
  8
VISIBLE
100
AcDbSpline
210
0.0
220
0.0
230
1.0
 70
    12
 71
     5
 72
    81
 73
    75
 74
     0
 42
0.0000000001
 43
0.00000001
 40
0.0
 40
0.0
 40
0.0
 40
0.0
 40
0.0
 40
0.0
 40
0.0142857142857143
 40
0.0285714285714286
 40
0.0428571428571429
 40
0.0571428571428571
 40
0.0714285714285714
 40
0.0857142857142857
 40
0.1
 40
0.114285714285714
 40
0.128571428571429
 40
0.142857142857143
 40
0.157142857142857
 40
0.171428571428571
 40
0.185714285714286
 40
0.2
 40
0.214285714285714
 40
0.228571428571429
 40
0.242857142857143
 40
0.257142857142857
 40
0.271428571428571
 40
0.285714285714286
 40
0.3
 40
0.314285714285714
 40
0.328571428571429
 40
0.342857142857143
 40
0.357142857142857
 40
0.371428571428571
 40
0.385714285714286
 40
0.4
 40
0.414285714285714
 40
0.428571428571429
 40
0.442857142857143
 40
0.457142857142857
 40
0.471428571428572
 40
0.485714285714286
 40
0.5
 40
0.514285714285714
 40
0.528571428571429
 40
0.542857142857143
 40
0.5571428571428569
 40
0.571428571428571
 40
0.585714285714286
 40
0.6
 40
0.614285714285714
 40
0.628571428571428
 40
0.642857142857142
 40
0.6571428571428569
 40
0.6714285714285709
 40
0.6857142857142849
 40
0.7
 40
0.714285714285714
 40
0.728571428571428
 40
0.742857142857142
 40
0.7571428571428559
 40
0.7714285714285709
 40
0.7857142857142849
 40
0.8
 40
0.8142857142857131
 40
0.8285714285714281
 40
0.842857142857142
 40
0.857142857142856
 40
0.87142857142857
 40
0.885714285714284
 40
0.9
 40
0.914285714285713
 40
0.928571428571427
 40
0.9428571428571411
 40
0.957142857142856
 40
0.97142857142857
 40
0.985714285714284
 40
1.0
 40
1.0
 40
1.0
 40
1.0
 40
1.0
 40
1.0
 10
8.746440246075109
 20
11.0534964094047
 30
0.0
 41
1.0
 10
8.75272228862368
 20
11.0614463588623
 30
0.0
 41
1.0
 10
8.7650217340962
 20
11.0775280853779
 30
0.0
 41
1.0
 10
8.78267699610031
 20
11.1021961495688
 30
0.0
 41
1.0
 10
8.804708846917011
 20
11.1361246435794
 30
0.0
 41
1.0
 10
8.83019349629008
 20
11.1799562791629
 30
0.0
 41
1.0
 10
8.85420405999664
 20
11.2248171864078
 30
0.0
 41
1.0
 10
8.87731093921144
 20
11.2703208700051
 30
0.0
 41
1.0
 10
8.89992809081004
 20
11.3161831361286
 30
0.0
 41
1.0
 10
8.922204013367889
 20
11.3622948295959
 30
0.0
 41
1.0
 10
8.944114344447579
 20
11.4086611707649
 30
0.0
 41
1.0
 10
8.96553189252468
 20
11.4553560463027
 30
0.0
 41
1.0
 10
8.98630110830926
 20
11.5024733064665
 30
0.0
 41
1.0
 10
9.006320354901158
 20
11.550073040208
 30
0.0
 41
1.0
 10
9.02558934700973
 20
11.5981504760255
 30
0.0
 41
1.0
 10
9.04416657190271
 20
11.6466634226977
 30
0.0
 41
1.0
 10
9.062143353985281
 20
11.6955488778949
 30
0.0
 41
1.0
 10
9.07961355717007
 20
11.7447424941944
 30
0.0
 41
1.0
 10
9.09663988729252
 20
11.7942002091973
 30
0.0
 41
1.0
 10
9.113240394144599
 20
11.8439068978606
 30
0.0
 41
1.0
 10
9.12940705023471
 20
11.8938643971115
 30
0.0
 41
1.0
 10
9.14511700088791
 20
11.9440842440071
 30
0.0
 41
1.0
 10
9.160345704483019
 20
11.9945791996098
 30
0.0
 41
1.0
 10
9.17508182929894
 20
12.045353640487
 30
0.0
 41
1.0
 10
9.189331380970911
 20
12.0964008877434
 30
0.0
 41
1.0
 10
9.2031099977595
 20
12.1477081575214
 30
0.0
 41
1.0
 10
9.2164382707851
 20
12.1992595632743
 30
0.0
 41
1.0
 10
9.229336298494239
 20
12.2510396120404
 30
0.0
 41
1.0
 10
9.24181744221678
 20
12.3030372144381
 30
0.0
 41
1.0
 10
9.253887218054341
 20
12.3552463913181
 30
0.0
 41
1.0
 10
9.26554654435996
 20
12.4076641790295
 30
0.0
 41
1.0
 10
9.27679381227511
 20
12.4602892920259
 30
0.0
 41
1.0
 10
9.287627241303412
 20
12.5131206026383
 30
0.0
 41
1.0
 10
9.298047606328058
 20
12.5661553818136
 30
0.0
 41
1.0
 10
9.30805860526174
 20
12.6193890597342
 30
0.0
 41
1.0
 10
9.317665521637
 20
12.6728160847753
 30
0.0
 41
1.0
 10
9.326874365591879
 20
12.7264304748913
 30
0.0
 41
1.0
 10
9.33569090418322
 20
12.7802264403625
 30
0.0
 41
1.0
 10
9.34411953665894
 20
12.8341991075077
 30
0.0
 41
1.0
 10
9.3521631770473
 20
12.8883445910727
 30
0.0
 41
1.0
 10
9.359823829183918
 20
12.9426596192372
 30
0.0
 41
1.0
 10
9.367102970113429
 20
12.997141282828
 30
0.0
 41
1.0
 10
9.3740019783545
 20
13.0517867562965
 30
0.0
 41
1.0
 10
9.38052263561146
 20
13.1065929707669
 30
0.0
 41
1.0
 10
9.38666719715584
 20
13.1615565699689
 30
0.0
 41
1.0
 10
9.39243814965752
 20
13.2166740708212
 30
0.0
 41
1.0
 10
9.39783805871351
 20
13.2719419664259
 30
0.0
 41
1.0
 10
9.40286939668955
 20
13.3273568410651
 30
0.0
 41
1.0
 10
9.40753434609704
 20
13.3829155050771
 30
0.0
 41
1.0
 10
9.411834765903839
 20
13.4386150106551
 30
0.0
 41
1.0
 10
9.41577229786529
 20
13.4944525666723
 30
0.0
 41
1.0
 10
9.41934843770669
 20
13.5504254787902
 30
0.0
 41
1.0
 10
9.42256461635326
 20
13.6065310851116
 30
0.0
 41
1.0
 10
9.425422296173961
 20
13.6627666761667
 30
0.0
 41
1.0
 10
9.42792299843102
 20
13.7191294849379
 30
0.0
 41
1.0
 10
9.430068254027129
 20
13.7756167521515
 30
0.0
 41
1.0
 10
9.43185957633995
 20
13.8322257735297
 30
0.0
 41
1.0
 10
9.43329842974696
 20
13.8889539469221
 30
0.0
 41
1.0
 10
9.434386197456439
 20
13.9457988347051
 30
0.0
 41
1.0
 10
9.43512417022331
 20
14.0027581626583
 30
0.0
 41
1.0
 10
9.435513568564012
 20
14.0598297226082
 30
0.0
 41
1.0
 10
9.43555555974461
 20
14.1170112930515
 30
0.0
 41
1.0
 10
9.43525127788411
 20
14.1743005609906
 30
0.0
 41
1.0
 10
9.43460184876214
 20
14.2316950201965
 30
0.0
 41
1.0
 10
9.433608403808519
 20
14.2891919498472
 30
0.0
 41
1.0
 10
9.43227206161925
 20
14.346788601345
 30
0.0
 41
1.0
 10
9.43059391837369
 20
14.4044823469319
 30
0.0
 41
1.0
 10
9.428575036087722
 20
14.4622708377713
 30
0.0
 41
1.0
 10
9.42621643687008
 20
14.5201521695336
 30
0.0
 41
1.0
 10
9.423519089421829
 20
14.5781250091583
 30
0.0
 41
1.0
 10
9.42048384566631
 20
14.6361884807726
 30
0.0
 41
1.0
 10
9.41778587719792
 20
14.6827113605944
 30
0.0
 41
1.0
 10
9.41561085603748
 20
14.7176439753793
 30
0.0
 41
1.0
 10
9.414093511062202
 20
14.7409503592586
 30
0.0
 41
1.0
 10
9.41331800585689
 20
14.7526080447021
 30
0.0
 41
1.0
  0
ARC
  5
100001B3
102
{ACAD_XDICTIONARY
360
100001B4
102
}
330
1F
100
AcDbEntity
  8
VISIBLE
100
AcDbCircle
 10
0.0000000000000899
 20
0.0000000000001558
 30
0.0
 40
17.5
100
AcDbArc
 50
57.45893903063143
 51
62.54106096936843
  0
SPLINE
  5
100001B9
102
{ACAD_XDICTIONARY
360
100001BA
102
}
330
1F
100
AcDbEntity
  8
VISIBLE
100
AcDbSpline
210
0.0
220
0.0
230
1.0
 70
    12
 71
     5
 72
    81
 73
    75
 74
     0
 42
0.0000000001
 43
0.00000001
 40
-1.0
 40
-1.0
 40
-1.0
 40
-1.0
 40
-1.0
 40
-1.0
 40
-0.985714285714284
 40
-0.97142857142857
 40
-0.957142857142856
 40
-0.9428571428571411
 40
-0.928571428571427
 40
-0.914285714285713
 40
-0.9
 40
-0.885714285714284
 40
-0.87142857142857
 40
-0.857142857142856
 40
-0.842857142857142
 40
-0.8285714285714281
 40
-0.8142857142857131
 40
-0.8
 40
-0.7857142857142849
 40
-0.7714285714285709
 40
-0.7571428571428559
 40
-0.742857142857142
 40
-0.728571428571428
 40
-0.714285714285714
 40
-0.7
 40
-0.6857142857142849
 40
-0.6714285714285709
 40
-0.6571428571428569
 40
-0.642857142857142
 40
-0.628571428571428
 40
-0.614285714285714
 40
-0.6
 40
-0.585714285714286
 40
-0.571428571428571
 40
-0.5571428571428569
 40
-0.542857142857143
 40
-0.528571428571429
 40
-0.514285714285714
 40
-0.5
 40
-0.485714285714286
 40
-0.471428571428572
 40
-0.457142857142857
 40
-0.442857142857143
 40
-0.428571428571429
 40
-0.414285714285714
 40
-0.4
 40
-0.385714285714286
 40
-0.371428571428571
 40
-0.357142857142857
 40
-0.342857142857143
 40
-0.328571428571429
 40
-0.314285714285714
 40
-0.3
 40
-0.285714285714286
 40
-0.271428571428571
 40
-0.257142857142857
 40
-0.242857142857143
 40
-0.228571428571429
 40
-0.214285714285714
 40
-0.2
 40
-0.185714285714286
 40
-0.171428571428571
 40
-0.157142857142857
 40
-0.142857142857143
 40
-0.128571428571429
 40
-0.114285714285714
 40
-0.1
 40
-0.0857142857142857
 40
-0.0714285714285714
 40
-0.0571428571428571
 40
-0.0428571428571429
 40
-0.0285714285714286
 40
-0.0142857142857143
 40
0.0
 40
0.0
 40
0.0
 40
0.0
 40
0.0
 40
0.0
 10
8.069474335858299
 20
15.5284765493246
 30
0.0
 41
1.0
 10
8.058990731512178
 20
15.5233193138114
 30
0.0
 41
1.0
 10
8.038048138514709
 20
15.5129801811666
 30
0.0
 41
1.0
 10
8.00670809611014
 20
15.4973974973529
 30
0.0
 41
1.0
 10
7.96506911609313
 20
15.4764725666743
 30
0.0
 41
1.0
 10
7.913267052765401
 20
15.450069429066
 30
0.0
 41
1.0
 10
7.861712427196769
 20
15.4234189806667
 30
0.0
 41
1.0
 10
7.810406423876939
 20
15.3965209216254
 30
0.0
 41
1.0
 10
7.75935068162071
 20
15.3693750795526
 30
0.0
 41
1.0
 10
7.70854736068021
 20
15.341981521441
 30
0.0
 41
1.0
 10
7.657999026215501
 20
15.3143405019761
 30
0.0
 41
1.0
 10
7.60770850202162
 20
15.2864523857179
 30
0.0
 41
1.0
 10
7.557678727751879
 20
15.2583175782325
 30
0.0
 41
1.0
 10
7.50791262542216
 20
15.2299364600841
 30
0.0
 41
1.0
 10
7.45841292838026
 20
15.2013093094333
 30
0.0
 41
1.0
 10
7.409182206800391
 20
15.1724363006031
 30
0.0
 41
1.0
 10
7.36022296819387
 20
15.1433175334631
 30
0.0
 41
1.0
 10
7.31153773515321
 20
15.1139530551018
 30
0.0
 41
1.0
 10
7.26312912258865
 20
15.0843428848028
 30
0.0
 41
1.0
 10
7.21499993314817
 20
15.0544870434844
 30
0.0
 41
1.0
 10
7.16715315254889
 20
15.0243855640338
 30
0.0
 41
1.0
 10
7.11959187945289
 20
14.9940384879663
 30
0.0
 41
1.0
 10
7.072319268912721
 20
14.9634458691181
 30
0.0
 41
1.0
 10
7.02533847786692
 20
14.9326077735464
 30
0.0
 41
1.0
 10
6.978652583969731
 20
14.9015242895373
 30
0.0
 41
1.0
 10
6.932264607954259
 20
14.8701955088218
 30
0.0
 41
1.0
 10
6.886177631048961
 20
14.8386214832332
 30
0.0
 41
1.0
 10
6.84039489131794
 20
14.806802186533
 30
0.0
 41
1.0
 10
6.79491987112086
 20
14.7747374827111
 30
0.0
 41
1.0
 10
6.749756424041539
 20
14.7424270764881
 30
0.0
 41
1.0
 10
6.70490874436112
 20
14.7098705345915
 30
0.0
 41
1.0
 10
6.66038115194096
 20
14.6770673885979
 30
0.0
 41
1.0
 10
6.616177906552799
 20
14.6440172265288
 30
0.0
 41
1.0
 10
6.572303042447849
 20
14.6107197733969
 30
0.0
 41
1.0
 10
6.52876010820249
 20
14.5771750206388
 30
0.0
 41
1.0
 10
6.48555224007311
 20
14.5433831871967
 30
0.0
 41
1.0
 10
6.44268269599982
 20
14.509344448499
 30
0.0
 41
1.0
 10
6.40015531137993
 20
14.4750587050832
 30
0.0
 41
1.0
 10
6.357974907956409
 20
14.4405253759541
 30
0.0
 41
1.0
 10
6.31614790608495
 20
14.4057430880917
 30
0.0
 41
1.0
 10
6.27468220333837
 20
14.3707097419381
 30
0.0
 41
1.0
 10
6.23358598538913
 20
14.335423123584
 30
0.0
 41
1.0
 10
6.19286670185148
 20
14.2998814331683
 30
0.0
 41
1.0
 10
6.15253015926011
 20
14.2640837531135
 30
0.0
 41
1.0
 10
6.11257910848579
 20
14.2280307768776
 30
0.0
 41
1.0
 10
6.073013635870299
 20
14.1917246102502
 30
0.0
 41
1.0
 10
6.03383405030035
 20
14.1551672893169
 30
0.0
 41
1.0
 10
5.995043377549339
 20
14.118359500586
 30
0.0
 41
1.0
 10
5.95664955376323
 20
14.0812994565481
 30
0.0
 41
1.0
 10
5.91866886329327
 20
14.043981130643
 30
0.0
 41
1.0
 10
5.88112477266094
 20
14.006394863586
 30
0.0
 41
1.0
 10
5.84404133557969
 20
13.9685307662174
 30
0.0
 41
1.0
 10
5.807437442325011
 20
13.9303816873348
 30
0.0
 41
1.0
 10
5.771321879807671
 20
13.8919457653534
 30
0.0
 41
1.0
 10
5.73568519194852
 20
13.8532306255478
 30
0.0
 41
1.0
 10
5.700504056532759
 20
13.814251141054
 30
0.0
 41
1.0
 10
5.66575705483834
 20
13.7750213360728
 30
0.0
 41
1.0
 10
5.631438582293961
 20
13.7355472441521
 30
0.0
 41
1.0
 10
5.597570762466971
 20
13.695820796235
 30
0.0
 41
1.0
 10
5.56422310743184
 20
13.6558097186746
 30
0.0
 41
1.0
 10
5.53149827564783
 20
13.6154648966494
 30
0.0
 41
1.0
 10
5.49949649093529
 20
13.5747387420693
 30
0.0
 41
1.0
 10
5.46828353559778
 20
13.5336016990853
 30
0.0
 41
1.0
 10
5.437863399231441
 20
13.4920564005173
 30
0.0
 41
1.0
 10
5.40813322482775
 20
13.4501608220269
 30
0.0
 41
1.0
 10
5.37893396103473
 20
13.408002748122
 30
0.0
 41
1.0
 10
5.35013802435942
 20
13.3656553865605
 30
0.0
 41
1.0
 10
5.32172871262062
 20
13.3231372256531
 30
0.0
 41
1.0
 10
5.293874806267
 20
13.2803742394523
 30
0.0
 41
1.0
 10
5.267029402809389
 20
13.2371500277008
 30
0.0
 41
1.0
 10
5.24181241759124
 20
13.1931638561454
 30
0.0
 41
1.0
 10
5.223445405274241
 20
13.1571194666405
 30
0.0
 41
1.0
 10
5.210909866024779
 20
13.129495529139
 30
0.0
 41
1.0
 10
5.20313240506179
 20
13.1108030336495
 30
0.0
 41
1.0
 10
5.199388568147009
 20
13.101387650486
 30
0.0
 41
1.0
  0
LINE
  5
100001BD
102
{ACAD_XDICTIONARY
360
100001BE
102
}
330
1F
100
AcDbEntity
  8
VISIBLE
100
AcDbLine
 10
5.199388568147
 20
13.101387650486
 30
0.0
 11
4.57734336148994
 21
11.537004879811
 31
0.0
  0
ARC
  5
100001C1
102
{ACAD_XDICTIONARY
360
100001C2
102
}
330
1F
100
AcDbEntity
  8
VISIBLE
100
AcDbCircle
 10
4.1387448084237
 20
11.7114047343069
 30
0.0
 40
0.472
100
AcDbArc
 50
250.5368772719964
 51
338.3157572449227
  0
ARC
  5
100001C7
102
{ACAD_XDICTIONARY
360
100001C8
102
}
330
1F
100
AcDbEntity
  8
VISIBLE
100
AcDbCircle
 10
0.0
 20
0.0
 30
0.0
 40
11.9492
100
AcDbArc
 50
70.53687727199527
 51
79.46312272800456
  0
ARC
  5
100001CD
102
{ACAD_XDICTIONARY
360
100001CE
102
}
330
1F
100
AcDbEntity
  8
VISIBLE
100
AcDbCircle
 10
2.27144422327757
 20
12.211746418123
 30
0.0
 40
0.472
100
AcDbArc
 50
171.6842427550853
 51
259.4631227280061
  0
LINE
  5
100001D3
102
{ACAD_XDICTIONARY
360
100001D4
102
}
330
1F
100
AcDbEntity
  8
VISIBLE
100
AcDbLine
 10
1.80440680701116
 20
12.2800109902463
 30
0.0
 11
2.04789124108131
 21
13.9458288142221
 31
0.0
  0
SPLINE
  5
100001D7
102
{ACAD_XDICTIONARY
360
100001D8
102
}
330
1F
100
AcDbEntity
  8
VISIBLE
100
AcDbSpline
210
0.0
220
0.0
230
1.0
 70
    12
 71
     5
 72
    81
 73
    75
 74
     0
 42
0.0000000001
 43
0.00000001
 40
0.0
 40
0.0
 40
0.0
 40
0.0
 40
0.0
 40
0.0
 40
0.0142857142857143
 40
0.0285714285714286
 40
0.0428571428571429
 40
0.0571428571428571
 40
0.0714285714285714
 40
0.0857142857142857
 40
0.1
 40
0.114285714285714
 40
0.128571428571429
 40
0.142857142857143
 40
0.157142857142857
 40
0.171428571428571
 40
0.185714285714286
 40
0.2
 40
0.214285714285714
 40
0.228571428571429
 40
0.242857142857143
 40
0.257142857142857
 40
0.271428571428571
 40
0.285714285714286
 40
0.3
 40
0.314285714285714
 40
0.328571428571429
 40
0.342857142857143
 40
0.357142857142857
 40
0.371428571428571
 40
0.385714285714286
 40
0.4
 40
0.414285714285714
 40
0.428571428571429
 40
0.442857142857143
 40
0.457142857142857
 40
0.471428571428572
 40
0.485714285714286
 40
0.5
 40
0.514285714285714
 40
0.528571428571429
 40
0.542857142857143
 40
0.5571428571428569
 40
0.571428571428571
 40
0.585714285714286
 40
0.6
 40
0.614285714285714
 40
0.628571428571428
 40
0.642857142857142
 40
0.6571428571428569
 40
0.6714285714285709
 40
0.6857142857142849
 40
0.7
 40
0.714285714285714
 40
0.728571428571428
 40
0.742857142857142
 40
0.7571428571428559
 40
0.7714285714285709
 40
0.7857142857142849
 40
0.8
 40
0.8142857142857131
 40
0.8285714285714281
 40
0.842857142857142
 40
0.857142857142856
 40
0.87142857142857
 40
0.885714285714284
 40
0.9
 40
0.914285714285713
 40
0.928571428571427
 40
0.9428571428571411
 40
0.957142857142856
 40
0.97142857142857
 40
0.985714285714284
 40
1.0
 40
1.0
 40
1.0
 40
1.0
 40
1.0
 40
1.0
 10
2.0478912410813
 20
13.9458288142221
 30
0.0
 41
1.0
 10
2.04935667478723
 20
13.9558546936855
 30
0.0
 41
1.0
 10
2.05196744376108
 20
13.975931600121
 30
0.0
 41
1.0
 10
2.054923317071661
 20
14.0061224013745
 30
0.0
 41
1.0
 10
2.057039212566
 20
14.0465212645082
 30
0.0
 41
1.0
 10
2.05719374853789
 20
14.0972228990995
 30
0.0
 41
1.0
 10
2.05555705304451
 20
14.1480788662636
 30
0.0
 41
1.0
 10
2.05281635564806
 20
14.199039651832
 30
0.0
 41
1.0
 10
2.04947225043193
 20
14.2500661151694
 30
0.0
 41
1.0
 10
2.0457079185261
 20
14.3011379744026
 30
0.0
 41
1.0
 10
2.04149965126195
 20
14.3522475692753
 30
0.0
 41
1.0
 10
2.03670035421462
 20
14.4033952917561
 30
0.0
 41
1.0
 10
2.03112839261881
 20
14.454584643907
 30
0.0
 41
1.0
 10
2.02466570186131
 20
14.5058168458364
 30
0.0
 41
1.0
 10
2.01731442062386
 20
14.5570876226576
 30
0.0
 41
1.0
 10
2.00914629597694
 20
14.6083896793345
 30
0.0
 41
1.0
 10
2.0002719183401
 20
14.6597141164522
 30
0.0
 41
1.0
 10
1.99080474995766
 20
14.711052139464
 30
0.0
 41
1.0
 10
1.98082112687549
 20
14.7623969421309
 30
0.0
 41
1.0
 10
1.97034424319342
 20
14.8137444506773
 30
0.0
 41
1.0
 10
1.95936622843626
 20
14.8650922421832
 30
0.0
 41
1.0
 10
1.94786152134633
 20
14.9164388806956
 30
0.0
 41
1.0
 10
1.93580248772505
 20
14.967783146808
 30
0.0
 41
1.0
 10
1.92317712573035
 20
15.0191231648786
 30
0.0
 41
1.0
 10
1.90999397584267
 20
15.0704561536318
 30
0.0
 41
1.0
 10
1.89627297312156
 20
15.1217788610528
 30
0.0
 41
1.0
 10
1.88203989327388
 20
15.1730878245483
 30
0.0
 41
1.0
 10
1.86731988854564
 20
15.2243796760436
 30
0.0
 41
1.0
 10
1.85213007487881
 20
15.2756514925171
 30
0.0
 41
1.0
 10
1.83647821893213
 20
15.3269008539246
 30
0.0
 41
1.0
 10
1.82036659784808
 20
15.3781256528457
 30
0.0
 41
1.0
 10
1.80379446108758
 20
15.4293239715352
 30
0.0
 41
1.0
 10
1.78676083053
 20
15.4804939431549
 30
0.0
 41
1.0
 10
1.76926774177037
 20
15.5316335917172
 30
0.0
 41
1.0
 10
1.75132068220392
 20
15.5827408086001
 30
0.0
 41
1.0
 10
1.73292700331638
 20
15.6338134277219
 30
0.0
 41
1.0
 10
1.71409490106278
 20
15.6848492735483
 30
0.0
 41
1.0
 10
1.69483226472071
 20
15.7358462155631
 30
0.0
 41
1.0
 10
1.67514534099124
 20
15.7868022326587
 30
0.0
 41
1.0
 10
1.65503859612398
 20
15.8377154171204
 30
0.0
 41
1.0
 10
1.63451540140162
 20
15.8885839373864
 30
0.0
 41
1.0
 10
1.61357849056887
 20
15.9394060125613
 30
0.0
 41
1.0
 10
1.59223047023235
 20
15.9901798849073
 30
0.0
 41
1.0
 10
1.57047441783104
 20
16.0409037875524
 30
0.0
 41
1.0
 10
1.54831396462259
 20
16.091575941517
 30
0.0
 41
1.0
 10
1.52575300566689
 20
16.142194573699
 30
0.0
 41
1.0
 10
1.5027955162852
 20
16.1927579298344
 30
0.0
 41
1.0
 10
1.47944534546785
 20
16.2432642880075
 30
0.0
 41
1.0
 10
1.45570597815609
 20
16.293711977146
 30
0.0
 41
1.0
 10
1.43158049816676
 20
16.3440993738581
 30
0.0
 41
1.0
 10
1.40707172286495
 20
16.394424881835
 30
0.0
 41
1.0
 10
1.38218229475614
 20
16.4446869155736
 30
0.0
 41
1.0
 10
1.35691478400647
 20
16.494883885266
 30
0.0
 41
1.0
 10
1.33127181179954
 20
16.5450141756268
 30
0.0
 41
1.0
 10
1.30525607909584
 20
16.5950761509799
 30
0.0
 41
1.0
 10
1.27887029133288
 20
16.6450681871753
 30
0.0
 41
1.0
 10
1.25211711127306
 20
16.6949886989286
 30
0.0
 41
1.0
 10
1.22499910817967
 20
16.7448361649002
 30
0.0
 41
1.0
 10
1.19751869875797
 20
16.7946091656503
 30
0.0
 41
1.0
 10
1.16967813794479
 20
16.8443063770237
 30
0.0
 41
1.0
 10
1.14147958682508
 20
16.8939264969443
 30
0.0
 41
1.0
 10
1.11292516703255
 20
16.9434681851668
 30
0.0
 41
1.0
 10
1.0840170172419
 20
16.992930005636
 30
0.0
 41
1.0
 10
1.05475736552138
 20
17.0423103507837
 30
0.0
 41
1.0
 10
1.02514855212895
 20
17.091607430024
 30
0.0
 41
1.0
 10
0.995192920095969
 20
17.1408194222995
 30
0.0
 41
1.0
 10
0.964892732620677
 20
17.1899445999944
 30
0.0
 41
1.0
 10
0.9342500838540999
 20
17.2389814599646
 30
0.0
 41
1.0
 10
0.903266811133137
 20
17.2879288640668
 30
0.0
 41
1.0
 10
0.871944419907775
 20
17.3367861421872
 30
0.0
 41
1.0
 10
0.840284085901623
 20
17.3855529617594
 30
0.0
 41
1.0
 10
0.8146861367585311
 20
17.424493973308
 30
0.0
 41
1.0
 10
0.795336205787365
 20
17.4536589945522
 30
0.0
 41
1.0
 10
0.78236895455282
 20
17.4730842425744
 30
0.0
 41
1.0
 10
0.775868504622464
 20
17.4827923417152
 30
0.0
 41
1.0
  0
ARC
  5
100001DB
102
{ACAD_XDICTIONARY
360
100001DC
102
}
330
1F
100
AcDbEntity
  8
VISIBLE
100
AcDbCircle
 10
0.0
 20
0.0000000000001799
 30
0.0
 40
17.5
100
AcDbArc
 50
87.4589390306315
 51
92.54106096936846
  0
SPLINE
  5
100001E1
102
{ACAD_XDICTIONARY
360
100001E2
102
}
330
1F
100
AcDbEntity
  8
VISIBLE
100
AcDbSpline
210
0.0
220
0.0
230
1.0
 70
    12
 71
     5
 72
    81
 73
    75
 74
     0
 42
0.0000000001
 43
0.00000001
 40
-1.0
 40
-1.0
 40
-1.0
 40
-1.0
 40
-1.0
 40
-1.0
 40
-0.985714285714284
 40
-0.97142857142857
 40
-0.957142857142856
 40
-0.9428571428571411
 40
-0.928571428571427
 40
-0.914285714285713
 40
-0.9
 40
-0.885714285714284
 40
-0.87142857142857
 40
-0.857142857142856
 40
-0.842857142857142
 40
-0.8285714285714281
 40
-0.8142857142857131
 40
-0.8
 40
-0.7857142857142849
 40
-0.7714285714285709
 40
-0.7571428571428559
 40
-0.742857142857142
 40
-0.728571428571428
 40
-0.714285714285714
 40
-0.7
 40
-0.6857142857142849
 40
-0.6714285714285709
 40
-0.6571428571428569
 40
-0.642857142857142
 40
-0.628571428571428
 40
-0.614285714285714
 40
-0.6
 40
-0.585714285714286
 40
-0.571428571428571
 40
-0.5571428571428569
 40
-0.542857142857143
 40
-0.528571428571429
 40
-0.514285714285714
 40
-0.5
 40
-0.485714285714286
 40
-0.471428571428572
 40
-0.457142857142857
 40
-0.442857142857143
 40
-0.428571428571429
 40
-0.414285714285714
 40
-0.4
 40
-0.385714285714286
 40
-0.371428571428571
 40
-0.357142857142857
 40
-0.342857142857143
 40
-0.328571428571429
 40
-0.314285714285714
 40
-0.3
 40
-0.285714285714286
 40
-0.271428571428571
 40
-0.257142857142857
 40
-0.242857142857143
 40
-0.228571428571429
 40
-0.214285714285714
 40
-0.2
 40
-0.185714285714286
 40
-0.171428571428571
 40
-0.157142857142857
 40
-0.142857142857143
 40
-0.128571428571429
 40
-0.114285714285714
 40
-0.1
 40
-0.0857142857142857
 40
-0.0714285714285714
 40
-0.0571428571428571
 40
-0.0428571428571429
 40
-0.0285714285714286
 40
-0.0142857142857143
 40
0.0
 40
0.0
 40
0.0
 40
0.0
 40
0.0
 40
0.0
 10
-0.775868504622456
 20
17.4827923417152
 30
0.0
 41
1.0
 10
-0.782368954552811
 20
17.4730842425744
 30
0.0
 41
1.0
 10
-0.7953362057873581
 20
17.4536589945522
 30
0.0
 41
1.0
 10
-0.8146861367585231
 20
17.424493973308
 30
0.0
 41
1.0
 10
-0.8402840859016151
 20
17.3855529617594
 30
0.0
 41
1.0
 10
-0.871944419907766
 20
17.3367861421872
 30
0.0
 41
1.0
 10
-0.903266811133129
 20
17.2879288640668
 30
0.0
 41
1.0
 10
-0.9342500838540929
 20
17.2389814599646
 30
0.0
 41
1.0
 10
-0.964892732620669
 20
17.1899445999944
 30
0.0
 41
1.0
 10
-0.995192920095961
 20
17.1408194222995
 30
0.0
 41
1.0
 10
-1.02514855212895
 20
17.091607430024
 30
0.0
 41
1.0
 10
-1.05475736552137
 20
17.0423103507837
 30
0.0
 41
1.0
 10
-1.0840170172419
 20
16.992930005636
 30
0.0
 41
1.0
 10
-1.11292516703255
 20
16.9434681851668
 30
0.0
 41
1.0
 10
-1.14147958682507
 20
16.8939264969443
 30
0.0
 41
1.0
 10
-1.16967813794478
 20
16.8443063770237
 30
0.0
 41
1.0
 10
-1.19751869875797
 20
16.7946091656503
 30
0.0
 41
1.0
 10
-1.22499910817967
 20
16.7448361649002
 30
0.0
 41
1.0
 10
-1.25211711127305
 20
16.6949886989286
 30
0.0
 41
1.0
 10
-1.27887029133288
 20
16.6450681871753
 30
0.0
 41
1.0
 10
-1.30525607909583
 20
16.5950761509799
 30
0.0
 41
1.0
 10
-1.33127181179953
 20
16.5450141756268
 30
0.0
 41
1.0
 10
-1.35691478400646
 20
16.494883885266
 30
0.0
 41
1.0
 10
-1.38218229475614
 20
16.4446869155736
 30
0.0
 41
1.0
 10
-1.40707172286494
 20
16.394424881835
 30
0.0
 41
1.0
 10
-1.43158049816675
 20
16.3440993738581
 30
0.0
 41
1.0
 10
-1.45570597815608
 20
16.293711977146
 30
0.0
 41
1.0
 10
-1.47944534546785
 20
16.2432642880075
 30
0.0
 41
1.0
 10
-1.50279551628519
 20
16.1927579298344
 30
0.0
 41
1.0
 10
-1.52575300566689
 20
16.142194573699
 30
0.0
 41
1.0
 10
-1.54831396462258
 20
16.091575941517
 30
0.0
 41
1.0
 10
-1.57047441783103
 20
16.0409037875524
 30
0.0
 41
1.0
 10
-1.59223047023234
 20
15.9901798849073
 30
0.0
 41
1.0
 10
-1.61357849056886
 20
15.9394060125613
 30
0.0
 41
1.0
 10
-1.63451540140161
 20
15.8885839373864
 30
0.0
 41
1.0
 10
-1.65503859612397
 20
15.8377154171204
 30
0.0
 41
1.0
 10
-1.67514534099124
 20
15.7868022326587
 30
0.0
 41
1.0
 10
-1.6948322647207
 20
15.7358462155631
 30
0.0
 41
1.0
 10
-1.71409490106277
 20
15.6848492735483
 30
0.0
 41
1.0
 10
-1.73292700331638
 20
15.6338134277219
 30
0.0
 41
1.0
 10
-1.75132068220391
 20
15.5827408086001
 30
0.0
 41
1.0
 10
-1.76926774177037
 20
15.5316335917172
 30
0.0
 41
1.0
 10
-1.78676083052999
 20
15.4804939431549
 30
0.0
 41
1.0
 10
-1.80379446108757
 20
15.4293239715352
 30
0.0
 41
1.0
 10
-1.82036659784808
 20
15.3781256528457
 30
0.0
 41
1.0
 10
-1.83647821893212
 20
15.3269008539246
 30
0.0
 41
1.0
 10
-1.8521300748788
 20
15.2756514925171
 30
0.0
 41
1.0
 10
-1.86731988854564
 20
15.2243796760436
 30
0.0
 41
1.0
 10
-1.88203989327388
 20
15.1730878245483
 30
0.0
 41
1.0
 10
-1.89627297312156
 20
15.1217788610528
 30
0.0
 41
1.0
 10
-1.90999397584266
 20
15.0704561536318
 30
0.0
 41
1.0
 10
-1.92317712573035
 20
15.0191231648786
 30
0.0
 41
1.0
 10
-1.93580248772504
 20
14.967783146808
 30
0.0
 41
1.0
 10
-1.94786152134632
 20
14.9164388806956
 30
0.0
 41
1.0
 10
-1.95936622843625
 20
14.8650922421832
 30
0.0
 41
1.0
 10
-1.97034424319341
 20
14.8137444506773
 30
0.0
 41
1.0
 10
-1.98082112687548
 20
14.7623969421309
 30
0.0
 41
1.0
 10
-1.99080474995765
 20
14.711052139464
 30
0.0
 41
1.0
 10
-2.00027191834009
 20
14.6597141164522
 30
0.0
 41
1.0
 10
-2.00914629597693
 20
14.6083896793345
 30
0.0
 41
1.0
 10
-2.01731442062386
 20
14.5570876226576
 30
0.0
 41
1.0
 10
-2.0246657018613
 20
14.5058168458364
 30
0.0
 41
1.0
 10
-2.0311283926188
 20
14.454584643907
 30
0.0
 41
1.0
 10
-2.03670035421461
 20
14.4033952917561
 30
0.0
 41
1.0
 10
-2.04149965126194
 20
14.3522475692753
 30
0.0
 41
1.0
 10
-2.04570791852609
 20
14.3011379744026
 30
0.0
 41
1.0
 10
-2.04947225043192
 20
14.2500661151694
 30
0.0
 41
1.0
 10
-2.05281635564806
 20
14.199039651832
 30
0.0
 41
1.0
 10
-2.0555570530445
 20
14.1480788662636
 30
0.0
 41
1.0
 10
-2.05719374853789
 20
14.0972228990995
 30
0.0
 41
1.0
 10
-2.05703921256599
 20
14.0465212645082
 30
0.0
 41
1.0
 10
-2.05492331707165
 20
14.0061224013745
 30
0.0
 41
1.0
 10
-2.05196744376108
 20
13.975931600121
 30
0.0
 41
1.0
 10
-2.04935667478722
 20
13.9558546936855
 30
0.0
 41
1.0
 10
-2.0478912410813
 20
13.9458288142221
 30
0.0
 41
1.0
  0
LINE
  5
100001E5
102
{ACAD_XDICTIONARY
360
100001E6
102
}
330
1F
100
AcDbEntity
  8
VISIBLE
100
AcDbLine
 10
-2.0478912410813
 20
13.9458288142221
 30
0.0
 11
-1.80440680701115
 21
12.2800109902463
 31
0.0
  0
ARC
  5
100001E9
102
{ACAD_XDICTIONARY
360
100001EA
102
}
330
1F
100
AcDbEntity
  8
VISIBLE
100
AcDbCircle
 10
-2.27144422327757
 20
12.211746418123
 30
0.0
 40
0.472
100
AcDbArc
 50
280.5368772719939
 51
8.315757244914652
  0
ARC
  5
100001EF
102
{ACAD_XDICTIONARY
360
100001F0
102
}
330
1F
100
AcDbEntity
  8
VISIBLE
100
AcDbCircle
 10
0.0
 20
0.0
 30
0.0
 40
11.9492
100
AcDbArc
 50
100.5368772719955
 51
109.4631227280046
  0
ARC
  5
100001F5
102
{ACAD_XDICTIONARY
360
100001F6
102
}
330
1F
100
AcDbEntity
  8
VISIBLE
100
AcDbCircle
 10
-4.13874480842368
 20
11.7114047343069
 30
0.0
 40
0.472
100
AcDbArc
 50
201.6842427550773
 51
289.4631227280023
  0
LINE
  5
100001FB
102
{ACAD_XDICTIONARY
360
100001FC
102
}
330
1F
100
AcDbEntity
  8
VISIBLE
100
AcDbLine
 10
-4.577343361489929
 20
11.537004879811
 30
0.0
 11
-5.19938856814699
 21
13.101387650486
 31
0.0
  0
SPLINE
  5
100001FF
102
{ACAD_XDICTIONARY
360
10000200
102
}
330
1F
100
AcDbEntity
  8
VISIBLE
100
AcDbSpline
210
0.0
220
0.0
230
1.0
 70
    12
 71
     5
 72
    81
 73
    75
 74
     0
 42
0.0000000001
 43
0.00000001
 40
0.0
 40
0.0
 40
0.0
 40
0.0
 40
0.0
 40
0.0
 40
0.0142857142857143
 40
0.0285714285714286
 40
0.0428571428571429
 40
0.0571428571428571
 40
0.0714285714285714
 40
0.0857142857142857
 40
0.1
 40
0.114285714285714
 40
0.128571428571429
 40
0.142857142857143
 40
0.157142857142857
 40
0.171428571428571
 40
0.185714285714286
 40
0.2
 40
0.214285714285714
 40
0.228571428571429
 40
0.242857142857143
 40
0.257142857142857
 40
0.271428571428571
 40
0.285714285714286
 40
0.3
 40
0.314285714285714
 40
0.328571428571429
 40
0.342857142857143
 40
0.357142857142857
 40
0.371428571428571
 40
0.385714285714286
 40
0.4
 40
0.414285714285714
 40
0.428571428571429
 40
0.442857142857143
 40
0.457142857142857
 40
0.471428571428572
 40
0.485714285714286
 40
0.5
 40
0.514285714285714
 40
0.528571428571429
 40
0.542857142857143
 40
0.5571428571428569
 40
0.571428571428571
 40
0.585714285714286
 40
0.6
 40
0.614285714285714
 40
0.628571428571428
 40
0.642857142857142
 40
0.6571428571428569
 40
0.6714285714285709
 40
0.6857142857142849
 40
0.7
 40
0.714285714285714
 40
0.728571428571428
 40
0.742857142857142
 40
0.7571428571428559
 40
0.7714285714285709
 40
0.7857142857142849
 40
0.8
 40
0.8142857142857131
 40
0.8285714285714281
 40
0.842857142857142
 40
0.857142857142856
 40
0.87142857142857
 40
0.885714285714284
 40
0.9
 40
0.914285714285713
 40
0.928571428571427
 40
0.9428571428571411
 40
0.957142857142856
 40
0.97142857142857
 40
0.985714285714284
 40
1.0
 40
1.0
 40
1.0
 40
1.0
 40
1.0
 40
1.0
 10
-5.19938856814699
 20
13.101387650486
 30
0.0
 41
1.0
 10
-5.20313240506177
 20
13.1108030336495
 30
0.0
 41
1.0
 10
-5.210909866024759
 20
13.129495529139
 30
0.0
 41
1.0
 10
-5.22344540527422
 20
13.1571194666405
 30
0.0
 41
1.0
 10
-5.241812417591221
 20
13.1931638561455
 30
0.0
 41
1.0
 10
-5.26702940280937
 20
13.2371500277008
 30
0.0
 41
1.0
 10
-5.29387480626698
 20
13.2803742394523
 30
0.0
 41
1.0
 10
-5.3217287126206
 20
13.3231372256531
 30
0.0
 41
1.0
 10
-5.3501380243594
 20
13.3656553865605
 30
0.0
 41
1.0
 10
-5.37893396103471
 20
13.408002748122
 30
0.0
 41
1.0
 10
-5.40813322482773
 20
13.4501608220269
 30
0.0
 41
1.0
 10
-5.43786339923142
 20
13.4920564005173
 30
0.0
 41
1.0
 10
-5.468283535597759
 20
13.5336016990853
 30
0.0
 41
1.0
 10
-5.49949649093527
 20
13.5747387420693
 30
0.0
 41
1.0
 10
-5.53149827564782
 20
13.6154648966494
 30
0.0
 41
1.0
 10
-5.56422310743183
 20
13.6558097186746
 30
0.0
 41
1.0
 10
-5.59757076246695
 20
13.695820796235
 30
0.0
 41
1.0
 10
-5.63143858229394
 20
13.7355472441521
 30
0.0
 41
1.0
 10
-5.66575705483833
 20
13.7750213360728
 30
0.0
 41
1.0
 10
-5.70050405653274
 20
13.814251141054
 30
0.0
 41
1.0
 10
-5.735685191948501
 20
13.8532306255478
 30
0.0
 41
1.0
 10
-5.77132187980765
 20
13.8919457653534
 30
0.0
 41
1.0
 10
-5.80743744232499
 20
13.9303816873349
 30
0.0
 41
1.0
 10
-5.844041335579671
 20
13.9685307662174
 30
0.0
 41
1.0
 10
-5.88112477266092
 20
14.006394863586
 30
0.0
 41
1.0
 10
-5.91866886329325
 20
14.043981130643
 30
0.0
 41
1.0
 10
-5.95664955376321
 20
14.0812994565481
 30
0.0
 41
1.0
 10
-5.99504337754932
 20
14.1183595005861
 30
0.0
 41
1.0
 10
-6.03383405030033
 20
14.1551672893169
 30
0.0
 41
1.0
 10
-6.07301363587028
 20
14.1917246102502
 30
0.0
 41
1.0
 10
-6.112579108485771
 20
14.2280307768776
 30
0.0
 41
1.0
 10
-6.15253015926009
 20
14.2640837531135
 30
0.0
 41
1.0
 10
-6.19286670185147
 20
14.2998814331683
 30
0.0
 41
1.0
 10
-6.23358598538911
 20
14.335423123584
 30
0.0
 41
1.0
 10
-6.274682203338351
 20
14.3707097419381
 30
0.0
 41
1.0
 10
-6.31614790608494
 20
14.4057430880917
 30
0.0
 41
1.0
 10
-6.35797490795639
 20
14.4405253759541
 30
0.0
 41
1.0
 10
-6.40015531137991
 20
14.4750587050833
 30
0.0
 41
1.0
 10
-6.4426826959998
 20
14.509344448499
 30
0.0
 41
1.0
 10
-6.485552240073091
 20
14.5433831871967
 30
0.0
 41
1.0
 10
-6.52876010820247
 20
14.5771750206388
 30
0.0
 41
1.0
 10
-6.57230304244783
 20
14.6107197733969
 30
0.0
 41
1.0
 10
-6.61617790655278
 20
14.6440172265288
 30
0.0
 41
1.0
 10
-6.66038115194094
 20
14.6770673885979
 30
0.0
 41
1.0
 10
-6.704908744361111
 20
14.7098705345915
 30
0.0
 41
1.0
 10
-6.74975642404152
 20
14.7424270764881
 30
0.0
 41
1.0
 10
-6.794919871120841
 20
14.7747374827111
 30
0.0
 41
1.0
 10
-6.84039489131792
 20
14.806802186533
 30
0.0
 41
1.0
 10
-6.88617763104894
 20
14.8386214832332
 30
0.0
 41
1.0
 10
-6.93226460795424
 20
14.8701955088218
 30
0.0
 41
1.0
 10
-6.97865258396971
 20
14.9015242895373
 30
0.0
 41
1.0
 10
-7.025338477866899
 20
14.9326077735464
 30
0.0
 41
1.0
 10
-7.0723192689127
 20
14.9634458691181
 30
0.0
 41
1.0
 10
-7.119591879452869
 20
14.9940384879663
 30
0.0
 41
1.0
 10
-7.16715315254887
 20
15.0243855640338
 30
0.0
 41
1.0
 10
-7.21499993314815
 20
15.0544870434844
 30
0.0
 41
1.0
 10
-7.263129122588629
 20
15.0843428848028
 30
0.0
 41
1.0
 10
-7.31153773515319
 20
15.1139530551018
 30
0.0
 41
1.0
 10
-7.36022296819384
 20
15.1433175334631
 30
0.0
 41
1.0
 10
-7.40918220680037
 20
15.1724363006031
 30
0.0
 41
1.0
 10
-7.45841292838024
 20
15.2013093094333
 30
0.0
 41
1.0
 10
-7.50791262542213
 20
15.2299364600841
 30
0.0
 41
1.0
 10
-7.55767872775186
 20
15.2583175782326
 30
0.0
 41
1.0
 10
-7.6077085020216
 20
15.2864523857179
 30
0.0
 41
1.0
 10
-7.657999026215481
 20
15.3143405019761
 30
0.0
 41
1.0
 10
-7.70854736068019
 20
15.341981521441
 30
0.0
 41
1.0
 10
-7.759350681620689
 20
15.3693750795526
 30
0.0
 41
1.0
 10
-7.81040642387692
 20
15.3965209216254
 30
0.0
 41
1.0
 10
-7.86171242719675
 20
15.4234189806667
 30
0.0
 41
1.0
 10
-7.913267052765381
 20
15.450069429066
 30
0.0
 41
1.0
 10
-7.965069116093111
 20
15.4764725666743
 30
0.0
 41
1.0
 10
-8.006708096110119
 20
15.4973974973529
 30
0.0
 41
1.0
 10
-8.03804813851469
 20
15.5129801811666
 30
0.0
 41
1.0
 10
-8.05899073151216
 20
15.5233193138114
 30
0.0
 41
1.0
 10
-8.06947433585828
 20
15.5284765493246
 30
0.0
 41
1.0
  0
ARC
  5
10000203
102
{ACAD_XDICTIONARY
360
10000204
102
}
330
1F
100
AcDbEntity
  8
VISIBLE
100
AcDbCircle
 10
-0.0000000000000899
 20
0.0000000000001558
 30
0.0
 40
17.5
100
AcDbArc
 50
117.4589390306315
 51
122.5410609693683
  0
SPLINE
  5
10000209
102
{ACAD_XDICTIONARY
360
1000020A
102
}
330
1F
100
AcDbEntity
  8
VISIBLE
100
AcDbSpline
210
0.0
220
0.0
230
1.0
 70
    12
 71
     5
 72
    81
 73
    75
 74
     0
 42
0.0000000001
 43
0.00000001
 40
-1.0
 40
-1.0
 40
-1.0
 40
-1.0
 40
-1.0
 40
-1.0
 40
-0.985714285714284
 40
-0.97142857142857
 40
-0.957142857142856
 40
-0.9428571428571411
 40
-0.928571428571427
 40
-0.914285714285713
 40
-0.9
 40
-0.885714285714284
 40
-0.87142857142857
 40
-0.857142857142856
 40
-0.842857142857142
 40
-0.8285714285714281
 40
-0.8142857142857131
 40
-0.8
 40
-0.7857142857142849
 40
-0.7714285714285709
 40
-0.7571428571428559
 40
-0.742857142857142
 40
-0.728571428571428
 40
-0.714285714285714
 40
-0.7
 40
-0.6857142857142849
 40
-0.6714285714285709
 40
-0.6571428571428569
 40
-0.642857142857142
 40
-0.628571428571428
 40
-0.614285714285714
 40
-0.6
 40
-0.585714285714286
 40
-0.571428571428571
 40
-0.5571428571428569
 40
-0.542857142857143
 40
-0.528571428571429
 40
-0.514285714285714
 40
-0.5
 40
-0.485714285714286
 40
-0.471428571428572
 40
-0.457142857142857
 40
-0.442857142857143
 40
-0.428571428571429
 40
-0.414285714285714
 40
-0.4
 40
-0.385714285714286
 40
-0.371428571428571
 40
-0.357142857142857
 40
-0.342857142857143
 40
-0.328571428571429
 40
-0.314285714285714
 40
-0.3
 40
-0.285714285714286
 40
-0.271428571428571
 40
-0.257142857142857
 40
-0.242857142857143
 40
-0.228571428571429
 40
-0.214285714285714
 40
-0.2
 40
-0.185714285714286
 40
-0.171428571428571
 40
-0.157142857142857
 40
-0.142857142857143
 40
-0.128571428571429
 40
-0.114285714285714
 40
-0.1
 40
-0.0857142857142857
 40
-0.0714285714285714
 40
-0.0571428571428571
 40
-0.0428571428571429
 40
-0.0285714285714286
 40
-0.0142857142857143
 40
0.0
 40
0.0
 40
0.0
 40
0.0
 40
0.0
 40
0.0
 10
-9.41331800585687
 20
14.7526080447022
 30
0.0
 41
1.0
 10
-9.41409351106218
 20
14.7409503592586
 30
0.0
 41
1.0
 10
-9.41561085603746
 20
14.7176439753793
 30
0.0
 41
1.0
 10
-9.4177858771979
 20
14.6827113605944
 30
0.0
 41
1.0
 10
-9.420483845666292
 20
14.6361884807726
 30
0.0
 41
1.0
 10
-9.423519089421811
 20
14.5781250091583
 30
0.0
 41
1.0
 10
-9.42621643687006
 20
14.5201521695336
 30
0.0
 41
1.0
 10
-9.4285750360877
 20
14.4622708377713
 30
0.0
 41
1.0
 10
-9.43059391837367
 20
14.4044823469319
 30
0.0
 41
1.0
 10
-9.432272061619239
 20
14.3467886013451
 30
0.0
 41
1.0
 10
-9.4336084038085
 20
14.2891919498472
 30
0.0
 41
1.0
 10
-9.434601848762119
 20
14.2316950201965
 30
0.0
 41
1.0
 10
-9.4352512778841
 20
14.1743005609907
 30
0.0
 41
1.0
 10
-9.435555559744591
 20
14.1170112930516
 30
0.0
 41
1.0
 10
-9.43551356856399
 20
14.0598297226082
 30
0.0
 41
1.0
 10
-9.43512417022329
 20
14.0027581626584
 30
0.0
 41
1.0
 10
-9.43438619745642
 20
13.9457988347051
 30
0.0
 41
1.0
 10
-9.433298429746939
 20
13.8889539469221
 30
0.0
 41
1.0
 10
-9.43185957633993
 20
13.8322257735297
 30
0.0
 41
1.0
 10
-9.430068254027109
 20
13.7756167521516
 30
0.0
 41
1.0
 10
-9.427922998431
 20
13.719129484938
 30
0.0
 41
1.0
 10
-9.42542229617395
 20
13.6627666761667
 30
0.0
 41
1.0
 10
-9.42256461635324
 20
13.6065310851117
 30
0.0
 41
1.0
 10
-9.41934843770667
 20
13.5504254787902
 30
0.0
 41
1.0
 10
-9.41577229786527
 20
13.4944525666723
 30
0.0
 41
1.0
 10
-9.41183476590383
 20
13.4386150106551
 30
0.0
 41
1.0
 10
-9.407534346097032
 20
13.3829155050772
 30
0.0
 41
1.0
 10
-9.40286939668953
 20
13.3273568410651
 30
0.0
 41
1.0
 10
-9.3978380587135
 20
13.2719419664259
 30
0.0
 41
1.0
 10
-9.392438149657501
 20
13.2166740708212
 30
0.0
 41
1.0
 10
-9.386667197155829
 20
13.1615565699689
 30
0.0
 41
1.0
 10
-9.38052263561144
 20
13.1065929707669
 30
0.0
 41
1.0
 10
-9.37400197835449
 20
13.0517867562965
 30
0.0
 41
1.0
 10
-9.36710297011341
 20
12.9971412828281
 30
0.0
 41
1.0
 10
-9.359823829183911
 20
12.9426596192372
 30
0.0
 41
1.0
 10
-9.35216317704729
 20
12.8883445910727
 30
0.0
 41
1.0
 10
-9.344119536658921
 20
12.8341991075078
 30
0.0
 41
1.0
 10
-9.33569090418321
 20
12.7802264403626
 30
0.0
 41
1.0
 10
-9.32687436559186
 20
12.7264304748913
 30
0.0
 41
1.0
 10
-9.31766552163699
 20
12.6728160847753
 30
0.0
 41
1.0
 10
-9.30805860526172
 20
12.6193890597342
 30
0.0
 41
1.0
 10
-9.29804760632804
 20
12.5661553818136
 30
0.0
 41
1.0
 10
-9.28762724130339
 20
12.5131206026383
 30
0.0
 41
1.0
 10
-9.2767938122751
 20
12.4602892920259
 30
0.0
 41
1.0
 10
-9.265546544359951
 20
12.4076641790295
 30
0.0
 41
1.0
 10
-9.25388721805433
 20
12.3552463913181
 30
0.0
 41
1.0
 10
-9.241817442216758
 20
12.3030372144381
 30
0.0
 41
1.0
 10
-9.229336298494218
 20
12.2510396120404
 30
0.0
 41
1.0
 10
-9.21643827078508
 20
12.1992595632743
 30
0.0
 41
1.0
 10
-9.203109997759489
 20
12.1477081575214
 30
0.0
 41
1.0
 10
-9.1893313809709
 20
12.0964008877434
 30
0.0
 41
1.0
 10
-9.17508182929892
 20
12.0453536404871
 30
0.0
 41
1.0
 10
-9.160345704483
 20
11.9945791996098
 30
0.0
 41
1.0
 10
-9.1451170008879
 20
11.9440842440071
 30
0.0
 41
1.0
 10
-9.129407050234699
 20
11.8938643971115
 30
0.0
 41
1.0
 10
-9.11324039414458
 20
11.8439068978606
 30
0.0
 41
1.0
 10
-9.096639887292511
 20
11.7942002091973
 30
0.0
 41
1.0
 10
-9.07961355717005
 20
11.7447424941944
 30
0.0
 41
1.0
 10
-9.06214335398527
 20
11.6955488778949
 30
0.0
 41
1.0
 10
-9.0441665719027
 20
11.6466634226977
 30
0.0
 41
1.0
 10
-9.025589347009719
 20
11.5981504760255
 30
0.0
 41
1.0
 10
-9.00632035490115
 20
11.550073040208
 30
0.0
 41
1.0
 10
-8.98630110830925
 20
11.5024733064665
 30
0.0
 41
1.0
 10
-8.96553189252467
 20
11.4553560463027
 30
0.0
 41
1.0
 10
-8.944114344447561
 20
11.4086611707649
 30
0.0
 41
1.0
 10
-8.922204013367882
 20
11.3622948295959
 30
0.0
 41
1.0
 10
-8.89992809081002
 20
11.3161831361286
 30
0.0
 41
1.0
 10
-8.87731093921142
 20
11.2703208700051
 30
0.0
 41
1.0
 10
-8.85420405999662
 20
11.2248171864078
 30
0.0
 41
1.0
 10
-8.83019349629007
 20
11.1799562791629
 30
0.0
 41
1.0
 10
-8.804708846917
 20
11.1361246435795
 30
0.0
 41
1.0
 10
-8.782676996100301
 20
11.1021961495688
 30
0.0
 41
1.0
 10
-8.765021734096178
 20
11.0775280853779
 30
0.0
 41
1.0
 10
-8.75272228862366
 20
11.0614463588623
 30
0.0
 41
1.0
 10
-8.74644024607509
 20
11.0534964094047
 30
0.0
 41
1.0
  0
LINE
  5
1000020D
102
{ACAD_XDICTIONARY
360
1000020E
102
}
330
1F
100
AcDbEntity
  8
VISIBLE
100
AcDbLine
 10
-8.74644024607508
 20
11.0534964094047
 30
0.0
 11
-7.70266762875639
 21
9.732598072799869
 31
0.0
  0
ARC
  5
10000211
102
{ACAD_XDICTIONARY
360
10000212
102
}
330
1F
100
AcDbEntity
  8
VISIBLE
100
AcDbCircle
 10
-8.073001609699261
 20
9.439960511029328
 30
0.0
 40
0.472
100
AcDbArc
 50
310.5368772719956
 51
38.31575724492576
  0
ARC
  5
10000217
102
{ACAD_XDICTIONARY
360
10000218
102
}
330
1F
100
AcDbEntity
  8
VISIBLE
100
AcDbCircle
 10
0.0
 20
0.0
 30
0.0
 40
11.9492
100
AcDbArc
 50
130.5368772719954
 51
139.4631227280046
  0
ARC
  5
1000021D
102
{ACAD_XDICTIONARY
360
1000021E
102
}
330
1F
100
AcDbEntity
  8
VISIBLE
100
AcDbCircle
 10
-9.43996051102932
 20
8.073001609699281
 30
0.0
 40
0.472
100
AcDbArc
 50
231.684242755076
 51
319.4631227280037
  0
LINE
  5
10000223
102
{ACAD_XDICTIONARY
360
10000224
102
}
330
1F
100
AcDbEntity
  8
VISIBLE
100
AcDbLine
 10
-9.73259807279985
 20
7.7026676287564
 30
0.0
 11
-11.0534964094047
 21
8.746440246075101
 31
0.0
  0
SPLINE
  5
10000227
102
{ACAD_XDICTIONARY
360
10000228
102
}
330
1F
100
AcDbEntity
  8
VISIBLE
100
AcDbSpline
210
0.0
220
0.0
230
1.0
 70
    12
 71
     5
 72
    81
 73
    75
 74
     0
 42
0.0000000001
 43
0.00000001
 40
0.0
 40
0.0
 40
0.0
 40
0.0
 40
0.0
 40
0.0
 40
0.0142857142857143
 40
0.0285714285714286
 40
0.0428571428571429
 40
0.0571428571428571
 40
0.0714285714285714
 40
0.0857142857142857
 40
0.1
 40
0.114285714285714
 40
0.128571428571429
 40
0.142857142857143
 40
0.157142857142857
 40
0.171428571428571
 40
0.185714285714286
 40
0.2
 40
0.214285714285714
 40
0.228571428571429
 40
0.242857142857143
 40
0.257142857142857
 40
0.271428571428571
 40
0.285714285714286
 40
0.3
 40
0.314285714285714
 40
0.328571428571429
 40
0.342857142857143
 40
0.357142857142857
 40
0.371428571428571
 40
0.385714285714286
 40
0.4
 40
0.414285714285714
 40
0.428571428571429
 40
0.442857142857143
 40
0.457142857142857
 40
0.471428571428572
 40
0.485714285714286
 40
0.5
 40
0.514285714285714
 40
0.528571428571429
 40
0.542857142857143
 40
0.5571428571428569
 40
0.571428571428571
 40
0.585714285714286
 40
0.6
 40
0.614285714285714
 40
0.628571428571428
 40
0.642857142857142
 40
0.6571428571428569
 40
0.6714285714285709
 40
0.6857142857142849
 40
0.7
 40
0.714285714285714
 40
0.728571428571428
 40
0.742857142857142
 40
0.7571428571428559
 40
0.7714285714285709
 40
0.7857142857142849
 40
0.8
 40
0.8142857142857131
 40
0.8285714285714281
 40
0.842857142857142
 40
0.857142857142856
 40
0.87142857142857
 40
0.885714285714284
 40
0.9
 40
0.914285714285713
 40
0.928571428571427
 40
0.9428571428571411
 40
0.957142857142856
 40
0.97142857142857
 40
0.985714285714284
 40
1.0
 40
1.0
 40
1.0
 40
1.0
 40
1.0
 40
1.0
 10
-11.0534964094047
 20
8.746440246075109
 30
0.0
 41
1.0
 10
-11.0614463588623
 20
8.75272228862368
 30
0.0
 41
1.0
 10
-11.0775280853779
 20
8.7650217340962
 30
0.0
 41
1.0
 10
-11.1021961495688
 20
8.78267699610031
 30
0.0
 41
1.0
 10
-11.1361246435794
 20
8.804708846917011
 30
0.0
 41
1.0
 10
-11.1799562791629
 20
8.83019349629008
 30
0.0
 41
1.0
 10
-11.2248171864078
 20
8.85420405999664
 30
0.0
 41
1.0
 10
-11.2703208700051
 20
8.87731093921144
 30
0.0
 41
1.0
 10
-11.3161831361286
 20
8.89992809081004
 30
0.0
 41
1.0
 10
-11.3622948295959
 20
8.922204013367889
 30
0.0
 41
1.0
 10
-11.4086611707649
 20
8.944114344447579
 30
0.0
 41
1.0
 10
-11.4553560463027
 20
8.96553189252468
 30
0.0
 41
1.0
 10
-11.5024733064665
 20
8.98630110830926
 30
0.0
 41
1.0
 10
-11.550073040208
 20
9.006320354901158
 30
0.0
 41
1.0
 10
-11.5981504760255
 20
9.02558934700973
 30
0.0
 41
1.0
 10
-11.6466634226977
 20
9.04416657190271
 30
0.0
 41
1.0
 10
-11.6955488778949
 20
9.062143353985281
 30
0.0
 41
1.0
 10
-11.7447424941944
 20
9.07961355717007
 30
0.0
 41
1.0
 10
-11.7942002091973
 20
9.09663988729252
 30
0.0
 41
1.0
 10
-11.8439068978606
 20
9.113240394144599
 30
0.0
 41
1.0
 10
-11.8938643971115
 20
9.12940705023471
 30
0.0
 41
1.0
 10
-11.9440842440071
 20
9.14511700088791
 30
0.0
 41
1.0
 10
-11.9945791996098
 20
9.160345704483019
 30
0.0
 41
1.0
 10
-12.045353640487
 20
9.17508182929894
 30
0.0
 41
1.0
 10
-12.0964008877434
 20
9.189331380970911
 30
0.0
 41
1.0
 10
-12.1477081575214
 20
9.2031099977595
 30
0.0
 41
1.0
 10
-12.1992595632743
 20
9.2164382707851
 30
0.0
 41
1.0
 10
-12.2510396120404
 20
9.229336298494239
 30
0.0
 41
1.0
 10
-12.3030372144381
 20
9.24181744221678
 30
0.0
 41
1.0
 10
-12.3552463913181
 20
9.253887218054341
 30
0.0
 41
1.0
 10
-12.4076641790295
 20
9.26554654435996
 30
0.0
 41
1.0
 10
-12.4602892920259
 20
9.27679381227511
 30
0.0
 41
1.0
 10
-12.5131206026383
 20
9.287627241303412
 30
0.0
 41
1.0
 10
-12.5661553818136
 20
9.298047606328058
 30
0.0
 41
1.0
 10
-12.6193890597342
 20
9.30805860526174
 30
0.0
 41
1.0
 10
-12.6728160847753
 20
9.317665521637
 30
0.0
 41
1.0
 10
-12.7264304748913
 20
9.326874365591879
 30
0.0
 41
1.0
 10
-12.7802264403625
 20
9.33569090418322
 30
0.0
 41
1.0
 10
-12.8341991075077
 20
9.34411953665894
 30
0.0
 41
1.0
 10
-12.8883445910727
 20
9.3521631770473
 30
0.0
 41
1.0
 10
-12.9426596192372
 20
9.359823829183918
 30
0.0
 41
1.0
 10
-12.997141282828
 20
9.367102970113429
 30
0.0
 41
1.0
 10
-13.0517867562965
 20
9.3740019783545
 30
0.0
 41
1.0
 10
-13.1065929707669
 20
9.38052263561146
 30
0.0
 41
1.0
 10
-13.1615565699689
 20
9.38666719715584
 30
0.0
 41
1.0
 10
-13.2166740708212
 20
9.39243814965752
 30
0.0
 41
1.0
 10
-13.2719419664259
 20
9.39783805871351
 30
0.0
 41
1.0
 10
-13.3273568410651
 20
9.40286939668955
 30
0.0
 41
1.0
 10
-13.3829155050771
 20
9.40753434609704
 30
0.0
 41
1.0
 10
-13.4386150106551
 20
9.411834765903839
 30
0.0
 41
1.0
 10
-13.4944525666723
 20
9.41577229786529
 30
0.0
 41
1.0
 10
-13.5504254787902
 20
9.41934843770669
 30
0.0
 41
1.0
 10
-13.6065310851116
 20
9.42256461635326
 30
0.0
 41
1.0
 10
-13.6627666761667
 20
9.425422296173961
 30
0.0
 41
1.0
 10
-13.7191294849379
 20
9.42792299843102
 30
0.0
 41
1.0
 10
-13.7756167521515
 20
9.430068254027129
 30
0.0
 41
1.0
 10
-13.8322257735297
 20
9.43185957633995
 30
0.0
 41
1.0
 10
-13.8889539469221
 20
9.43329842974696
 30
0.0
 41
1.0
 10
-13.9457988347051
 20
9.434386197456439
 30
0.0
 41
1.0
 10
-14.0027581626583
 20
9.43512417022331
 30
0.0
 41
1.0
 10
-14.0598297226082
 20
9.435513568564012
 30
0.0
 41
1.0
 10
-14.1170112930515
 20
9.43555555974461
 30
0.0
 41
1.0
 10
-14.1743005609906
 20
9.43525127788411
 30
0.0
 41
1.0
 10
-14.2316950201965
 20
9.43460184876214
 30
0.0
 41
1.0
 10
-14.2891919498472
 20
9.433608403808519
 30
0.0
 41
1.0
 10
-14.346788601345
 20
9.43227206161925
 30
0.0
 41
1.0
 10
-14.4044823469319
 20
9.43059391837369
 30
0.0
 41
1.0
 10
-14.4622708377713
 20
9.428575036087722
 30
0.0
 41
1.0
 10
-14.5201521695336
 20
9.42621643687008
 30
0.0
 41
1.0
 10
-14.5781250091583
 20
9.423519089421829
 30
0.0
 41
1.0
 10
-14.6361884807726
 20
9.42048384566631
 30
0.0
 41
1.0
 10
-14.6827113605944
 20
9.41778587719792
 30
0.0
 41
1.0
 10
-14.7176439753793
 20
9.41561085603748
 30
0.0
 41
1.0
 10
-14.7409503592586
 20
9.414093511062202
 30
0.0
 41
1.0
 10
-14.7526080447021
 20
9.41331800585689
 30
0.0
 41
1.0
  0
ARC
  5
1000022B
102
{ACAD_XDICTIONARY
360
1000022C
102
}
330
1F
100
AcDbEntity
  8
VISIBLE
100
AcDbCircle
 10
-0.0000000000001558
 20
0.0000000000000899
 30
0.0
 40
17.5
100
AcDbArc
 50
147.4589390306314
 51
152.5410609693685
  0
SPLINE
  5
10000231
102
{ACAD_XDICTIONARY
360
10000232
102
}
330
1F
100
AcDbEntity
  8
VISIBLE
100
AcDbSpline
210
0.0
220
0.0
230
1.0
 70
    12
 71
     5
 72
    81
 73
    75
 74
     0
 42
0.0000000001
 43
0.00000001
 40
-1.0
 40
-1.0
 40
-1.0
 40
-1.0
 40
-1.0
 40
-1.0
 40
-0.985714285714284
 40
-0.97142857142857
 40
-0.957142857142856
 40
-0.9428571428571411
 40
-0.928571428571427
 40
-0.914285714285713
 40
-0.9
 40
-0.885714285714284
 40
-0.87142857142857
 40
-0.857142857142856
 40
-0.842857142857142
 40
-0.8285714285714281
 40
-0.8142857142857131
 40
-0.8
 40
-0.7857142857142849
 40
-0.7714285714285709
 40
-0.7571428571428559
 40
-0.742857142857142
 40
-0.728571428571428
 40
-0.714285714285714
 40
-0.7
 40
-0.6857142857142849
 40
-0.6714285714285709
 40
-0.6571428571428569
 40
-0.642857142857142
 40
-0.628571428571428
 40
-0.614285714285714
 40
-0.6
 40
-0.585714285714286
 40
-0.571428571428571
 40
-0.5571428571428569
 40
-0.542857142857143
 40
-0.528571428571429
 40
-0.514285714285714
 40
-0.5
 40
-0.485714285714286
 40
-0.471428571428572
 40
-0.457142857142857
 40
-0.442857142857143
 40
-0.428571428571429
 40
-0.414285714285714
 40
-0.4
 40
-0.385714285714286
 40
-0.371428571428571
 40
-0.357142857142857
 40
-0.342857142857143
 40
-0.328571428571429
 40
-0.314285714285714
 40
-0.3
 40
-0.285714285714286
 40
-0.271428571428571
 40
-0.257142857142857
 40
-0.242857142857143
 40
-0.228571428571429
 40
-0.214285714285714
 40
-0.2
 40
-0.185714285714286
 40
-0.171428571428571
 40
-0.157142857142857
 40
-0.142857142857143
 40
-0.128571428571429
 40
-0.114285714285714
 40
-0.1
 40
-0.0857142857142857
 40
-0.0714285714285714
 40
-0.0571428571428571
 40
-0.0428571428571429
 40
-0.0285714285714286
 40
-0.0142857142857143
 40
0.0
 40
0.0
 40
0.0
 40
0.0
 40
0.0
 40
0.0
 10
-15.5284765493246
 20
8.069474335858299
 30
0.0
 41
1.0
 10
-15.5233193138114
 20
8.058990731512178
 30
0.0
 41
1.0
 10
-15.5129801811666
 20
8.038048138514709
 30
0.0
 41
1.0
 10
-15.4973974973529
 20
8.00670809611014
 30
0.0
 41
1.0
 10
-15.4764725666743
 20
7.96506911609313
 30
0.0
 41
1.0
 10
-15.450069429066
 20
7.913267052765401
 30
0.0
 41
1.0
 10
-15.4234189806667
 20
7.861712427196769
 30
0.0
 41
1.0
 10
-15.3965209216254
 20
7.810406423876939
 30
0.0
 41
1.0
 10
-15.3693750795526
 20
7.75935068162071
 30
0.0
 41
1.0
 10
-15.341981521441
 20
7.70854736068021
 30
0.0
 41
1.0
 10
-15.3143405019761
 20
7.657999026215501
 30
0.0
 41
1.0
 10
-15.2864523857179
 20
7.60770850202162
 30
0.0
 41
1.0
 10
-15.2583175782325
 20
7.557678727751879
 30
0.0
 41
1.0
 10
-15.2299364600841
 20
7.50791262542216
 30
0.0
 41
1.0
 10
-15.2013093094333
 20
7.45841292838026
 30
0.0
 41
1.0
 10
-15.1724363006031
 20
7.409182206800391
 30
0.0
 41
1.0
 10
-15.1433175334631
 20
7.36022296819387
 30
0.0
 41
1.0
 10
-15.1139530551018
 20
7.31153773515321
 30
0.0
 41
1.0
 10
-15.0843428848028
 20
7.26312912258865
 30
0.0
 41
1.0
 10
-15.0544870434844
 20
7.21499993314817
 30
0.0
 41
1.0
 10
-15.0243855640338
 20
7.16715315254889
 30
0.0
 41
1.0
 10
-14.9940384879663
 20
7.11959187945289
 30
0.0
 41
1.0
 10
-14.9634458691181
 20
7.072319268912721
 30
0.0
 41
1.0
 10
-14.9326077735464
 20
7.02533847786692
 30
0.0
 41
1.0
 10
-14.9015242895373
 20
6.978652583969731
 30
0.0
 41
1.0
 10
-14.8701955088218
 20
6.932264607954259
 30
0.0
 41
1.0
 10
-14.8386214832332
 20
6.886177631048961
 30
0.0
 41
1.0
 10
-14.806802186533
 20
6.84039489131794
 30
0.0
 41
1.0
 10
-14.7747374827111
 20
6.79491987112086
 30
0.0
 41
1.0
 10
-14.7424270764881
 20
6.749756424041539
 30
0.0
 41
1.0
 10
-14.7098705345915
 20
6.70490874436112
 30
0.0
 41
1.0
 10
-14.6770673885979
 20
6.66038115194096
 30
0.0
 41
1.0
 10
-14.6440172265288
 20
6.616177906552799
 30
0.0
 41
1.0
 10
-14.6107197733969
 20
6.572303042447849
 30
0.0
 41
1.0
 10
-14.5771750206388
 20
6.52876010820249
 30
0.0
 41
1.0
 10
-14.5433831871967
 20
6.48555224007311
 30
0.0
 41
1.0
 10
-14.509344448499
 20
6.44268269599982
 30
0.0
 41
1.0
 10
-14.4750587050832
 20
6.40015531137993
 30
0.0
 41
1.0
 10
-14.4405253759541
 20
6.357974907956409
 30
0.0
 41
1.0
 10
-14.4057430880917
 20
6.31614790608495
 30
0.0
 41
1.0
 10
-14.3707097419381
 20
6.27468220333837
 30
0.0
 41
1.0
 10
-14.335423123584
 20
6.23358598538913
 30
0.0
 41
1.0
 10
-14.2998814331683
 20
6.19286670185148
 30
0.0
 41
1.0
 10
-14.2640837531135
 20
6.15253015926011
 30
0.0
 41
1.0
 10
-14.2280307768776
 20
6.11257910848579
 30
0.0
 41
1.0
 10
-14.1917246102502
 20
6.073013635870299
 30
0.0
 41
1.0
 10
-14.1551672893169
 20
6.03383405030035
 30
0.0
 41
1.0
 10
-14.118359500586
 20
5.995043377549339
 30
0.0
 41
1.0
 10
-14.0812994565481
 20
5.95664955376323
 30
0.0
 41
1.0
 10
-14.043981130643
 20
5.91866886329327
 30
0.0
 41
1.0
 10
-14.006394863586
 20
5.88112477266094
 30
0.0
 41
1.0
 10
-13.9685307662174
 20
5.84404133557969
 30
0.0
 41
1.0
 10
-13.9303816873348
 20
5.807437442325011
 30
0.0
 41
1.0
 10
-13.8919457653534
 20
5.771321879807671
 30
0.0
 41
1.0
 10
-13.8532306255478
 20
5.73568519194852
 30
0.0
 41
1.0
 10
-13.814251141054
 20
5.700504056532759
 30
0.0
 41
1.0
 10
-13.7750213360728
 20
5.66575705483834
 30
0.0
 41
1.0
 10
-13.7355472441521
 20
5.631438582293961
 30
0.0
 41
1.0
 10
-13.695820796235
 20
5.597570762466971
 30
0.0
 41
1.0
 10
-13.6558097186746
 20
5.56422310743184
 30
0.0
 41
1.0
 10
-13.6154648966494
 20
5.53149827564783
 30
0.0
 41
1.0
 10
-13.5747387420693
 20
5.49949649093529
 30
0.0
 41
1.0
 10
-13.5336016990853
 20
5.46828353559778
 30
0.0
 41
1.0
 10
-13.4920564005173
 20
5.437863399231441
 30
0.0
 41
1.0
 10
-13.4501608220269
 20
5.40813322482775
 30
0.0
 41
1.0
 10
-13.408002748122
 20
5.37893396103473
 30
0.0
 41
1.0
 10
-13.3656553865605
 20
5.35013802435942
 30
0.0
 41
1.0
 10
-13.3231372256531
 20
5.32172871262062
 30
0.0
 41
1.0
 10
-13.2803742394523
 20
5.293874806267
 30
0.0
 41
1.0
 10
-13.2371500277008
 20
5.267029402809389
 30
0.0
 41
1.0
 10
-13.1931638561454
 20
5.24181241759124
 30
0.0
 41
1.0
 10
-13.1571194666405
 20
5.223445405274241
 30
0.0
 41
1.0
 10
-13.129495529139
 20
5.210909866024779
 30
0.0
 41
1.0
 10
-13.1108030336495
 20
5.20313240506179
 30
0.0
 41
1.0
 10
-13.101387650486
 20
5.199388568147009
 30
0.0
 41
1.0
  0
LINE
  5
10000235
102
{ACAD_XDICTIONARY
360
10000236
102
}
330
1F
100
AcDbEntity
  8
VISIBLE
100
AcDbLine
 10
-13.101387650486
 20
5.199388568147
 30
0.0
 11
-11.537004879811
 21
4.57734336148994
 31
0.0
  0
ARC
  5
10000239
102
{ACAD_XDICTIONARY
360
1000023A
102
}
330
1F
100
AcDbEntity
  8
VISIBLE
100
AcDbCircle
 10
-11.7114047343069
 20
4.1387448084237
 30
0.0
 40
0.472
100
AcDbArc
 50
340.5368772719964
 51
68.31575724492268
  0
ENDSEC
  0
SECTION
  2
OBJECTS
  0
DICTIONARY
  5
C
330
0
100
AcDbDictionary
  3
ACAD_GROUP
350
D
  3
ACAD_LAYOUT
350
1A
  3
ACAD_MATERIAL
350
43
  3
ACAD_MLEADERSTYLE
350
5B
  3
ACAD_MLINESTYLE
350
17
  3
ACAD_PLOTSETTINGS
350
19
  3
ACAD_SCALELIST
350
47
  3
ACAD_VISUALSTYLE
350
2A
  3
ACDBHEADERROUNDTRIPXREC
350
10000241
  3
ACDBVARIABLEDICTIONARY
350
10000262
  3
DWGPROPS
350
1000026D
  3
ONSHAPE_DATA
350
10000001
  0
DICTIONARY
  5
1000026E
330
8
100
AcDbDictionary
280
     1
  3
ACAD_XREC_ROUNDTRIP
360
1000026F
  0
DICTIONARY
  5
1000023F
330
1F
100
AcDbDictionary
280
     1
  3
ACAD_SORTENTS
360
10000240
  0
DICTIONARY
  5
1000005A
330
10000059
100
AcDbDictionary
280
     1
  3
BTARCONSURFACERADIUS
360
1000005D
  3
BTDETID
360
1000005B
  3
BTOWNERFACEID_
360
1000005C
  3
BTPARTID
360
1000005E
  0
DICTIONARY
  5
10000060
330
1000005F
100
AcDbDictionary
280
     1
  3
BTARCONSURFACERADIUS
360
10000063
  3
BTDETID
360
10000061
  3
BTOWNERFACEID_
360
10000062
  3
BTPARTID
360
10000064
  0
DICTIONARY
  5
10000066
330
10000065
100
AcDbDictionary
280
     1
  3
BTARCONSURFACERADIUS
360
10000069
  3
BTDETID
360
10000067
  3
BTOWNERFACEID_
360
10000068
  3
BTPARTID
360
1000006A
  0
DICTIONARY
  5
1000006C
330
1000006B
100
AcDbDictionary
280
     1
  3
BTDETID
360
1000006D
  3
BTPARTID
360
1000006E
  0
DICTIONARY
  5
10000070
330
1000006F
100
AcDbDictionary
280
     1
  3
BTDETID
360
10000071
  3
BTPARTID
360
10000072
  0
DICTIONARY
  5
10000074
330
10000073
100
AcDbDictionary
280
     1
  3
BTARCONSURFACERADIUS
360
10000077
  3
BTDETID
360
10000075
  3
BTOWNERFACEID_
360
10000076
  3
BTPARTID
360
10000078
  0
DICTIONARY
  5
1000007A
330
10000079
100
AcDbDictionary
280
     1
  3
BTDETID
360
1000007B
  3
BTPARTID
360
1000007C
  0
DICTIONARY
  5
1000007E
330
1000007D
100
AcDbDictionary
280
     1
  3
BTDETID
360
1000007F
  3
BTPARTID
360
10000080
  0
DICTIONARY
  5
10000082
330
10000081
100
AcDbDictionary
280
     1
  3
BTARCONSURFACERADIUS
360
10000085
  3
BTDETID
360
10000083
  3
BTOWNERFACEID_
360
10000084
  3
BTPARTID
360
10000086
  0
DICTIONARY
  5
10000088
330
10000087
100
AcDbDictionary
280
     1
  3
BTARCONSURFACERADIUS
360
1000008B
  3
BTDETID
360
10000089
  3
BTOWNERFACEID_
360
1000008A
  3
BTPARTID
360
1000008C
  0
DICTIONARY
  5
1000008E
330
1000008D
100
AcDbDictionary
280
     1
  3
BTARCONSURFACERADIUS
360
10000091
  3
BTDETID
360
1000008F
  3
BTOWNERFACEID_
360
10000090
  3
BTPARTID
360
10000092
  0
DICTIONARY
  5
10000094
330
10000093
100
AcDbDictionary
280
     1
  3
BTDETID
360
10000095
  3
BTPARTID
360
10000096
  0
DICTIONARY
  5
10000098
330
10000097
100
AcDbDictionary
280
     1
  3
BTDETID
360
10000099
  3
BTPARTID
360
1000009A
  0
DICTIONARY
  5
1000009C
330
1000009B
100
AcDbDictionary
280
     1
  3
BTARCONSURFACERADIUS
360
1000009F
  3
BTDETID
360
1000009D
  3
BTOWNERFACEID_
360
1000009E
  3
BTPARTID
360
100000A0
  0
DICTIONARY
  5
100000A2
330
100000A1
100
AcDbDictionary
280
     1
  3
BTDETID
360
100000A3
  3
BTPARTID
360
100000A4
  0
DICTIONARY
  5
100000A6
330
100000A5
100
AcDbDictionary
280
     1
  3
BTDETID
360
100000A7
  3
BTPARTID
360
100000A8
  0
DICTIONARY
  5
100000AA
330
100000A9
100
AcDbDictionary
280
     1
  3
BTARCONSURFACERADIUS
360
100000AD
  3
BTDETID
360
100000AB
  3
BTOWNERFACEID_
360
100000AC
  3
BTPARTID
360
100000AE
  0
DICTIONARY
  5
100000B0
330
100000AF
100
AcDbDictionary
280
     1
  3
BTARCONSURFACERADIUS
360
100000B3
  3
BTDETID
360
100000B1
  3
BTOWNERFACEID_
360
100000B2
  3
BTPARTID
360
100000B4
  0
DICTIONARY
  5
100000B6
330
100000B5
100
AcDbDictionary
280
     1
  3
BTARCONSURFACERADIUS
360
100000B9
  3
BTDETID
360
100000B7
  3
BTOWNERFACEID_
360
100000B8
  3
BTPARTID
360
100000BA
  0
DICTIONARY
  5
100000BC
330
100000BB
100
AcDbDictionary
280
     1
  3
BTDETID
360
100000BD
  3
BTPARTID
360
100000BE
  0
DICTIONARY
  5
100000C0
330
100000BF
100
AcDbDictionary
280
     1
  3
BTDETID
360
100000C1
  3
BTPARTID
360
100000C2
  0
DICTIONARY
  5
100000C4
330
100000C3
100
AcDbDictionary
280
     1
  3
BTARCONSURFACERADIUS
360
100000C7
  3
BTDETID
360
100000C5
  3
BTOWNERFACEID_
360
100000C6
  3
BTPARTID
360
100000C8
  0
DICTIONARY
  5
100000CA
330
100000C9
100
AcDbDictionary
280
     1
  3
BTDETID
360
100000CB
  3
BTPARTID
360
100000CC
  0
DICTIONARY
  5
100000CE
330
100000CD
100
AcDbDictionary
280
     1
  3
BTDETID
360
100000CF
  3
BTPARTID
360
100000D0
  0
DICTIONARY
  5
100000D2
330
100000D1
100
AcDbDictionary
280
     1
  3
BTARCONSURFACERADIUS
360
100000D5
  3
BTDETID
360
100000D3
  3
BTOWNERFACEID_
360
100000D4
  3
BTPARTID
360
100000D6
  0
DICTIONARY
  5
100000D8
330
100000D7
100
AcDbDictionary
280
     1
  3
BTARCONSURFACERADIUS
360
100000DB
  3
BTDETID
360
100000D9
  3
BTOWNERFACEID_
360
100000DA
  3
BTPARTID
360
100000DC
  0
DICTIONARY
  5
100000DE
330
100000DD
100
AcDbDictionary
280
     1
  3
BTARCONSURFACERADIUS
360
100000E1
  3
BTDETID
360
100000DF
  3
BTOWNERFACEID_
360
100000E0
  3
BTPARTID
360
100000E2
  0
DICTIONARY
  5
100000E4
330
100000E3
100
AcDbDictionary
280
     1
  3
BTDETID
360
100000E5
  3
BTPARTID
360
100000E6
  0
DICTIONARY
  5
100000E8
330
100000E7
100
AcDbDictionary
280
     1
  3
BTDETID
360
100000E9
  3
BTPARTID
360
100000EA
  0
DICTIONARY
  5
100000EC
330
100000EB
100
AcDbDictionary
280
     1
  3
BTARCONSURFACERADIUS
360
100000EF
  3
BTDETID
360
100000ED
  3
BTOWNERFACEID_
360
100000EE
  3
BTPARTID
360
100000F0
  0
DICTIONARY
  5
100000F2
330
100000F1
100
AcDbDictionary
280
     1
  3
BTDETID
360
100000F3
  3
BTPARTID
360
100000F4
  0
DICTIONARY
  5
100000F6
330
100000F5
100
AcDbDictionary
280
     1
  3
BTDETID
360
100000F7
  3
BTPARTID
360
100000F8
  0
DICTIONARY
  5
100000FA
330
100000F9
100
AcDbDictionary
280
     1
  3
BTARCONSURFACERADIUS
360
100000FD
  3
BTDETID
360
100000FB
  3
BTOWNERFACEID_
360
100000FC
  3
BTPARTID
360
100000FE
  0
DICTIONARY
  5
10000100
330
100000FF
100
AcDbDictionary
280
     1
  3
BTARCONSURFACERADIUS
360
10000103
  3
BTDETID
360
10000101
  3
BTOWNERFACEID_
360
10000102
  3
BTPARTID
360
10000104
  0
DICTIONARY
  5
10000106
330
10000105
100
AcDbDictionary
280
     1
  3
BTARCONSURFACERADIUS
360
10000109
  3
BTDETID
360
10000107
  3
BTOWNERFACEID_
360
10000108
  3
BTPARTID
360
1000010A
  0
DICTIONARY
  5
1000010C
330
1000010B
100
AcDbDictionary
280
     1
  3
BTDETID
360
1000010D
  3
BTPARTID
360
1000010E
  0
DICTIONARY
  5
10000110
330
1000010F
100
AcDbDictionary
280
     1
  3
BTDETID
360
10000111
  3
BTPARTID
360
10000112
  0
DICTIONARY
  5
10000114
330
10000113
100
AcDbDictionary
280
     1
  3
BTARCONSURFACERADIUS
360
10000117
  3
BTDETID
360
10000115
  3
BTOWNERFACEID_
360
10000116
  3
BTPARTID
360
10000118
  0
DICTIONARY
  5
1000011A
330
10000119
100
AcDbDictionary
280
     1
  3
BTDETID
360
1000011B
  3
BTPARTID
360
1000011C
  0
DICTIONARY
  5
1000011E
330
1000011D
100
AcDbDictionary
280
     1
  3
BTDETID
360
1000011F
  3
BTPARTID
360
10000120
  0
DICTIONARY
  5
10000122
330
10000121
100
AcDbDictionary
280
     1
  3
BTARCONSURFACERADIUS
360
10000125
  3
BTDETID
360
10000123
  3
BTOWNERFACEID_
360
10000124
  3
BTPARTID
360
10000126
  0
DICTIONARY
  5
10000128
330
10000127
100
AcDbDictionary
280
     1
  3
BTARCONSURFACERADIUS
360
1000012B
  3
BTDETID
360
10000129
  3
BTOWNERFACEID_
360
1000012A
  3
BTPARTID
360
1000012C
  0
DICTIONARY
  5
1000012E
330
1000012D
100
AcDbDictionary
280
     1
  3
BTARCONSURFACERADIUS
360
10000131
  3
BTDETID
360
1000012F
  3
BTOWNERFACEID_
360
10000130
  3
BTPARTID
360
10000132
  0
DICTIONARY
  5
10000134
330
10000133
100
AcDbDictionary
280
     1
  3
BTDETID
360
10000135
  3
BTPARTID
360
10000136
  0
DICTIONARY
  5
10000138
330
10000137
100
AcDbDictionary
280
     1
  3
BTDETID
360
10000139
  3
BTPARTID
360
1000013A
  0
DICTIONARY
  5
1000013C
330
1000013B
100
AcDbDictionary
280
     1
  3
BTARCONSURFACERADIUS
360
1000013F
  3
BTDETID
360
1000013D
  3
BTOWNERFACEID_
360
1000013E
  3
BTPARTID
360
10000140
  0
DICTIONARY
  5
10000142
330
10000141
100
AcDbDictionary
280
     1
  3
BTDETID
360
10000143
  3
BTPARTID
360
10000144
  0
DICTIONARY
  5
10000146
330
10000145
100
AcDbDictionary
280
     1
  3
BTDETID
360
10000147
  3
BTPARTID
360
10000148
  0
DICTIONARY
  5
1000014A
330
10000149
100
AcDbDictionary
280
     1
  3
BTARCONSURFACERADIUS
360
1000014D
  3
BTDETID
360
1000014B
  3
BTOWNERFACEID_
360
1000014C
  3
BTPARTID
360
1000014E
  0
DICTIONARY
  5
10000150
330
1000014F
100
AcDbDictionary
280
     1
  3
BTARCONSURFACERADIUS
360
10000153
  3
BTDETID
360
10000151
  3
BTOWNERFACEID_
360
10000152
  3
BTPARTID
360
10000154
  0
DICTIONARY
  5
10000156
330
10000155
100
AcDbDictionary
280
     1
  3
BTARCONSURFACERADIUS
360
10000159
  3
BTDETID
360
10000157
  3
BTOWNERFACEID_
360
10000158
  3
BTPARTID
360
1000015A
  0
DICTIONARY
  5
1000015C
330
1000015B
100
AcDbDictionary
280
     1
  3
BTDETID
360
1000015D
  3
BTPARTID
360
1000015E
  0
DICTIONARY
  5
10000160
330
1000015F
100
AcDbDictionary
280
     1
  3
BTDETID
360
10000161
  3
BTPARTID
360
10000162
  0
DICTIONARY
  5
10000164
330
10000163
100
AcDbDictionary
280
     1
  3
BTARCONSURFACERADIUS
360
10000167
  3
BTDETID
360
10000165
  3
BTOWNERFACEID_
360
10000166
  3
BTPARTID
360
10000168
  0
DICTIONARY
  5
1000016A
330
10000169
100
AcDbDictionary
280
     1
  3
BTDETID
360
1000016B
  3
BTPARTID
360
1000016C
  0
DICTIONARY
  5
1000016E
330
1000016D
100
AcDbDictionary
280
     1
  3
BTDETID
360
1000016F
  3
BTPARTID
360
10000170
  0
DICTIONARY
  5
10000172
330
10000171
100
AcDbDictionary
280
     1
  3
BTARCONSURFACERADIUS
360
10000175
  3
BTDETID
360
10000173
  3
BTOWNERFACEID_
360
10000174
  3
BTPARTID
360
10000176
  0
DICTIONARY
  5
10000178
330
10000177
100
AcDbDictionary
280
     1
  3
BTARCONSURFACERADIUS
360
1000017B
  3
BTDETID
360
10000179
  3
BTOWNERFACEID_
360
1000017A
  3
BTPARTID
360
1000017C
  0
DICTIONARY
  5
1000017E
330
1000017D
100
AcDbDictionary
280
     1
  3
BTARCONSURFACERADIUS
360
10000181
  3
BTDETID
360
1000017F
  3
BTOWNERFACEID_
360
10000180
  3
BTPARTID
360
10000182
  0
DICTIONARY
  5
10000184
330
10000183
100
AcDbDictionary
280
     1
  3
BTDETID
360
10000185
  3
BTPARTID
360
10000186
  0
DICTIONARY
  5
10000188
330
10000187
100
AcDbDictionary
280
     1
  3
BTDETID
360
10000189
  3
BTPARTID
360
1000018A
  0
DICTIONARY
  5
1000018C
330
1000018B
100
AcDbDictionary
280
     1
  3
BTARCONSURFACERADIUS
360
1000018F
  3
BTDETID
360
1000018D
  3
BTOWNERFACEID_
360
1000018E
  3
BTPARTID
360
10000190
  0
DICTIONARY
  5
10000192
330
10000191
100
AcDbDictionary
280
     1
  3
BTDETID
360
10000193
  3
BTPARTID
360
10000194
  0
DICTIONARY
  5
10000196
330
10000195
100
AcDbDictionary
280
     1
  3
BTDETID
360
10000197
  3
BTPARTID
360
10000198
  0
DICTIONARY
  5
1000019A
330
10000199
100
AcDbDictionary
280
     1
  3
BTARCONSURFACERADIUS
360
1000019D
  3
BTDETID
360
1000019B
  3
BTOWNERFACEID_
360
1000019C
  3
BTPARTID
360
1000019E
  0
DICTIONARY
  5
100001A0
330
1000019F
100
AcDbDictionary
280
     1
  3
BTARCONSURFACERADIUS
360
100001A3
  3
BTDETID
360
100001A1
  3
BTOWNERFACEID_
360
100001A2
  3
BTPARTID
360
100001A4
  0
DICTIONARY
  5
100001A6
330
100001A5
100
AcDbDictionary
280
     1
  3
BTARCONSURFACERADIUS
360
100001A9
  3
BTDETID
360
100001A7
  3
BTOWNERFACEID_
360
100001A8
  3
BTPARTID
360
100001AA
  0
DICTIONARY
  5
100001AC
330
100001AB
100
AcDbDictionary
280
     1
  3
BTDETID
360
100001AD
  3
BTPARTID
360
100001AE
  0
DICTIONARY
  5
100001B0
330
100001AF
100
AcDbDictionary
280
     1
  3
BTDETID
360
100001B1
  3
BTPARTID
360
100001B2
  0
DICTIONARY
  5
100001B4
330
100001B3
100
AcDbDictionary
280
     1
  3
BTARCONSURFACERADIUS
360
100001B7
  3
BTDETID
360
100001B5
  3
BTOWNERFACEID_
360
100001B6
  3
BTPARTID
360
100001B8
  0
DICTIONARY
  5
100001BA
330
100001B9
100
AcDbDictionary
280
     1
  3
BTDETID
360
100001BB
  3
BTPARTID
360
100001BC
  0
DICTIONARY
  5
100001BE
330
100001BD
100
AcDbDictionary
280
     1
  3
BTDETID
360
100001BF
  3
BTPARTID
360
100001C0
  0
DICTIONARY
  5
100001C2
330
100001C1
100
AcDbDictionary
280
     1
  3
BTARCONSURFACERADIUS
360
100001C5
  3
BTDETID
360
100001C3
  3
BTOWNERFACEID_
360
100001C4
  3
BTPARTID
360
100001C6
  0
DICTIONARY
  5
100001C8
330
100001C7
100
AcDbDictionary
280
     1
  3
BTARCONSURFACERADIUS
360
100001CB
  3
BTDETID
360
100001C9
  3
BTOWNERFACEID_
360
100001CA
  3
BTPARTID
360
100001CC
  0
DICTIONARY
  5
100001CE
330
100001CD
100
AcDbDictionary
280
     1
  3
BTARCONSURFACERADIUS
360
100001D1
  3
BTDETID
360
100001CF
  3
BTOWNERFACEID_
360
100001D0
  3
BTPARTID
360
100001D2
  0
DICTIONARY
  5
100001D4
330
100001D3
100
AcDbDictionary
280
     1
  3
BTDETID
360
100001D5
  3
BTPARTID
360
100001D6
  0
DICTIONARY
  5
100001D8
330
100001D7
100
AcDbDictionary
280
     1
  3
BTDETID
360
100001D9
  3
BTPARTID
360
100001DA
  0
DICTIONARY
  5
100001DC
330
100001DB
100
AcDbDictionary
280
     1
  3
BTARCONSURFACERADIUS
360
100001DF
  3
BTDETID
360
100001DD
  3
BTOWNERFACEID_
360
100001DE
  3
BTPARTID
360
100001E0
  0
DICTIONARY
  5
100001E2
330
100001E1
100
AcDbDictionary
280
     1
  3
BTDETID
360
100001E3
  3
BTPARTID
360
100001E4
  0
DICTIONARY
  5
100001E6
330
100001E5
100
AcDbDictionary
280
     1
  3
BTDETID
360
100001E7
  3
BTPARTID
360
100001E8
  0
DICTIONARY
  5
100001EA
330
100001E9
100
AcDbDictionary
280
     1
  3
BTARCONSURFACERADIUS
360
100001ED
  3
BTDETID
360
100001EB
  3
BTOWNERFACEID_
360
100001EC
  3
BTPARTID
360
100001EE
  0
DICTIONARY
  5
100001F0
330
100001EF
100
AcDbDictionary
280
     1
  3
BTARCONSURFACERADIUS
360
100001F3
  3
BTDETID
360
100001F1
  3
BTOWNERFACEID_
360
100001F2
  3
BTPARTID
360
100001F4
  0
DICTIONARY
  5
100001F6
330
100001F5
100
AcDbDictionary
280
     1
  3
BTARCONSURFACERADIUS
360
100001F9
  3
BTDETID
360
100001F7
  3
BTOWNERFACEID_
360
100001F8
  3
BTPARTID
360
100001FA
  0
DICTIONARY
  5
100001FC
330
100001FB
100
AcDbDictionary
280
     1
  3
BTDETID
360
100001FD
  3
BTPARTID
360
100001FE
  0
DICTIONARY
  5
10000200
330
100001FF
100
AcDbDictionary
280
     1
  3
BTDETID
360
10000201
  3
BTPARTID
360
10000202
  0
DICTIONARY
  5
10000204
330
10000203
100
AcDbDictionary
280
     1
  3
BTARCONSURFACERADIUS
360
10000207
  3
BTDETID
360
10000205
  3
BTOWNERFACEID_
360
10000206
  3
BTPARTID
360
10000208
  0
DICTIONARY
  5
1000020A
330
10000209
100
AcDbDictionary
280
     1
  3
BTDETID
360
1000020B
  3
BTPARTID
360
1000020C
  0
DICTIONARY
  5
1000020E
330
1000020D
100
AcDbDictionary
280
     1
  3
BTDETID
360
1000020F
  3
BTPARTID
360
10000210
  0
DICTIONARY
  5
10000212
330
10000211
100
AcDbDictionary
280
     1
  3
BTARCONSURFACERADIUS
360
10000215
  3
BTDETID
360
10000213
  3
BTOWNERFACEID_
360
10000214
  3
BTPARTID
360
10000216
  0
DICTIONARY
  5
10000218
330
10000217
100
AcDbDictionary
280
     1
  3
BTARCONSURFACERADIUS
360
1000021B
  3
BTDETID
360
10000219
  3
BTOWNERFACEID_
360
1000021A
  3
BTPARTID
360
1000021C
  0
DICTIONARY
  5
1000021E
330
1000021D
100
AcDbDictionary
280
     1
  3
BTARCONSURFACERADIUS
360
10000221
  3
BTDETID
360
1000021F
  3
BTOWNERFACEID_
360
10000220
  3
BTPARTID
360
10000222
  0
DICTIONARY
  5
10000224
330
10000223
100
AcDbDictionary
280
     1
  3
BTDETID
360
10000225
  3
BTPARTID
360
10000226
  0
DICTIONARY
  5
10000228
330
10000227
100
AcDbDictionary
280
     1
  3
BTDETID
360
10000229
  3
BTPARTID
360
1000022A
  0
DICTIONARY
  5
1000022C
330
1000022B
100
AcDbDictionary
280
     1
  3
BTARCONSURFACERADIUS
360
1000022F
  3
BTDETID
360
1000022D
  3
BTOWNERFACEID_
360
1000022E
  3
BTPARTID
360
10000230
  0
DICTIONARY
  5
10000232
330
10000231
100
AcDbDictionary
280
     1
  3
BTDETID
360
10000233
  3
BTPARTID
360
10000234
  0
DICTIONARY
  5
10000236
330
10000235
100
AcDbDictionary
280
     1
  3
BTDETID
360
10000237
  3
BTPARTID
360
10000238
  0
DICTIONARY
  5
1000023A
330
10000239
100
AcDbDictionary
280
     1
  3
BTARCONSURFACERADIUS
360
1000023D
  3
BTDETID
360
1000023B
  3
BTOWNERFACEID_
360
1000023C
  3
BTPARTID
360
1000023E
  0
DICTIONARY
  5
D
102
{ACAD_REACTORS
330
C
102
}
330
C
100
AcDbDictionary
  0
DICTIONARY
  5
1A
102
{ACAD_REACTORS
330
C
102
}
330
C
100
AcDbDictionary
  0
DICTIONARY
  5
43
102
{ACAD_REACTORS
330
C
102
}
330
C
100
AcDbDictionary
  3
BYBLOCK
350
45
  3
BYLAYER
350
44
  3
GLOBAL
350
46
  0
DICTIONARY
  5
5B
102
{ACAD_REACTORS
330
C
102
}
330
C
100
AcDbDictionary
  3
STANDARD
350
5C
  0
DICTIONARY
  5
17
102
{ACAD_REACTORS
330
C
102
}
330
C
100
AcDbDictionary
  3
STANDARD
350
18
  0
DICTIONARY
  5
19
102
{ACAD_REACTORS
330
C
102
}
330
C
100
AcDbDictionary
  0
DICTIONARY
  5
47
102
{ACAD_REACTORS
330
C
102
}
330
C
100
AcDbDictionary
  3
SCALE100_1
350
10000023
  3
SCALE10_1
350
1000001D
  3
SCALE12_1
350
1000001E
  3
SCALE16_1
350
1000001F
  3
SCALE1_1
350
10000006
  3
SCALE1_10
350
1000000D
  3
SCALE1_100
350
10000016
  3
SCALE1_12
350
1000000E
  3
SCALE1_16
350
1000000F
  3
SCALE1_2
350
10000007
  3
SCALE1_20
350
10000010
  3
SCALE1_25
350
10000011
  3
SCALE1_3
350
10000008
  3
SCALE1_32
350
10000012
  3
SCALE1_4
350
10000009
  3
SCALE1_40
350
10000013
  3
SCALE1_5
350
1000000A
  3
SCALE1_50
350
10000014
  3
SCALE1_6
350
1000000B
  3
SCALE1_8
350
1000000C
  3
SCALE1_80
350
10000015
  3
SCALE20_1
350
10000020
  3
SCALE2_1
350
10000017
  3
SCALE32_1
350
10000021
  3
SCALE3_1
350
10000018
  3
SCALE4_1
350
10000019
  3
SCALE50_1
350
10000022
  3
SCALE5_1
350
1000001A
  3
SCALE6_1
350
1000001B
  3
SCALE8_1
350
1000001C
  0
DICTIONARY
  5
2A
102
{ACAD_REACTORS
330
C
102
}
330
C
100
AcDbDictionary
  3
2DWIREFRAME
350
2F
  3
BASIC
350
32
  3
BRIGHTEN
350
36
  3
COLORCHANGE
350
3A
  3
CONCEPTUAL
350
34
  3
DIM
350
35
  3
EDGECOLOROFF
350
3D
  3
FACEPATTERN
350
39
  3
FLAT
350
2B
  3
FLATWITHEDGES
350
2C
  3
GOURAUD
350
2D
  3
GOURAUDWITHEDGES
350
2E
  3
HIDDEN
350
31
  3
JITTEROFF
350
3B
  3
LINEPATTERN
350
38
  3
OVERHANGOFF
350
3C
  3
REALISTIC
350
33
  3
SHADED
350
42
  3
SHADED_WITH_EDGES
350
41
  3
SHADES_OF_GRAY
350
3E
  3
SKETCHY
350
3F
  3
THICKEN
350
37
  3
WIREFRAME
350
30
  3
X-RAY
350
40
  0
DICTIONARY
  5
10000241
102
{ACAD_REACTORS
330
C
102
}
330
C
100
AcDbDictionary
  3
CEPSNID
350
1000024B
  3
CEPSNTYPE
350
1000024A
  3
DIMSTYLEDATA
350
10000261
  3
FINGERPRINTGUID
350
1000024C
  3
HYPERLINKBASE
350
10000244
  3
INSUNITS
350
10000249
  3
LAYOUTDICT
350
10000246
  3
LWETCUNION
350
10000248
  3
PLOTSETDICT
350
10000247
  3
PSVPSCALE
350
1000024E
  3
PUCSBASE
350
10000251
  3
PUCSORGBACK
350
10000257
  3
PUCSORGBOTTOM
350
10000253
  3
PUCSORGFRONT
350
10000256
  3
PUCSORGLEFT
350
10000254
  3
PUCSORGRIGHT
350
10000255
  3
PUCSORGTOP
350
10000252
  3
PUCSORTHOREF
350
1000024F
  3
PUCSORTHOVIEW
350
10000250
  3
STYLESHEET
350
10000245
  3
TSTACKALIGN
350
10000242
  3
TSTACKSIZE
350
10000243
  3
UCSBASE
350
1000025A
  3
UCSORGBACK
350
10000260
  3
UCSORGBOTTOM
350
1000025C
  3
UCSORGFRONT
350
1000025F
  3
UCSORGLEFT
350
1000025D
  3
UCSORGRIGHT
350
1000025E
  3
UCSORGTOP
350
1000025B
  3
UCSORTHOREF
350
10000258
  3
UCSORTHOVIEW
350
10000259
  3
VERSIONGUID
350
1000024D
  0
DICTIONARY
  5
10000262
102
{ACAD_REACTORS
330
C
102
}
330
C
100
AcDbDictionary
  3
CANNOSCALE
350
10000270
  3
CENTEREXE
350
10000269
  3
CENTERLTYPEFILE
350
1000026A
  3
CMLEADERSTYLE
350
10000264
  3
CTABLESTYLE
350
10000263
  3
DIMASSOC
350
1000026B
  3
HIDETEXT
350
1000026C
  3
MSLTSCALE
350
10000271
  3
PSOLHEIGHT
350
10000266
  3
PSOLWIDTH
350
10000265
  0
XRECORD
  5
1000026D
102
{ACAD_REACTORS
330
C
102
}
330
C
100
AcDbXrecord
  1
DWGPROPS COOKIE
  2

  3

  4

  6
File was created by BTDwgCreate
  7

  8
onshape
  9

300
=
301
=
302
=
303
=
304
=
305
=
306
=
307
=
308
=
309
=
 40
0.0
 41
2461032.055891945
 42
2461032.055892003
  1

 90
        0
  0
DICTIONARY
  5
10000001
102
{ACAD_REACTORS
330
C
102
}
330
C
100
AcDbDictionary
280
     1
  3
DIM_UNITS
360
10000003
  3
DWGGEN_VERSION
360
10000002
  3
FIRST_ANGLE
360
10000005
  0
XRECORD
  5
1000026F
102
{ACAD_REACTORS
330
1000026E
102
}
330
1000026E
100
AcDbXrecord
102
VTR_0.000_0.000_1.000_1.000_VISUALSTYLE
340
2F
102
VTR_0.000_0.000_1.000_1.000_GRIDDISPLAY
 70
     3
102
VTR_0.000_0.000_1.000_1.000_GRIDMAJOR
 70
     5
102
VTR_0.000_0.000_1.000_1.000_DEFAULTLIGHTING
280
     1
102
VTR_0.000_0.000_1.000_1.000_DEFAULTLIGHTINGTYPE
 70
     1
102
VTR_0.000_0.000_1.000_1.000_BRIGHTNESS
141
0.0
102
VTR_0.000_0.000_1.000_1.000_CONTRAST
142
0.0
  0
SORTENTSTABLE
  5
10000240
102
{ACAD_REACTORS
330
1000023F
102
}
330
1000023F
100
AcDbSortentsTable
330
1F
  0
XRECORD
  5
1000005D
102
{ACAD_REACTORS
330
1000005A
102
}
330
1000005A
100
AcDbXrecord
 40
2.5
  0
XRECORD
  5
1000005B
102
{ACAD_REACTORS
330
1000005A
102
}
330
1000005A
100
AcDbXrecord
1000
LFxnD
  0
XRECORD
  5
1000005C
102
{ACAD_REACTORS
330
1000005A
102
}
330
1000005A
100
AcDbXrecord
1000
LFSTB
  0
XRECORD
  5
1000005E
102
{ACAD_REACTORS
330
1000005A
102
}
330
1000005A
100
AcDbXrecord
1000
KFTB
  0
XRECORD
  5
10000063
102
{ACAD_REACTORS
330
10000060
102
}
330
10000060
100
AcDbXrecord
 40
11.9492
  0
XRECORD
  5
10000061
102
{ACAD_REACTORS
330
10000060
102
}
330
10000060
100
AcDbXrecord
1000
LFtnD
  0
XRECORD
  5
10000062
102
{ACAD_REACTORS
330
10000060
102
}
330
10000060
100
AcDbXrecord
1000
LFSTB
  0
XRECORD
  5
10000064
102
{ACAD_REACTORS
330
10000060
102
}
330
10000060
100
AcDbXrecord
1000
KFTB
  0
XRECORD
  5
10000069
102
{ACAD_REACTORS
330
10000066
102
}
330
10000066
100
AcDbXrecord
 40
0.472
  0
XRECORD
  5
10000067
102
{ACAD_REACTORS
330
10000066
102
}
330
10000066
100
AcDbXrecord
1000
LFJnD
  0
XRECORD
  5
10000068
102
{ACAD_REACTORS
330
10000066
102
}
330
10000066
100
AcDbXrecord
1000
LFSTB
  0
XRECORD
  5
1000006A
102
{ACAD_REACTORS
330
10000066
102
}
330
10000066
100
AcDbXrecord
1000
KFTB
  0
XRECORD
  5
1000006D
102
{ACAD_REACTORS
330
1000006C
102
}
330
1000006C
100
AcDbXrecord
1000
LFVnD
  0
XRECORD
  5
1000006E
102
{ACAD_REACTORS
330
1000006C
102
}
330
1000006C
100
AcDbXrecord
1000
KFTB
  0
XRECORD
  5
10000071
102
{ACAD_REACTORS
330
10000070
102
}
330
10000070
100
AcDbXrecord
1000
LFpnD
  0
XRECORD
  5
10000072
102
{ACAD_REACTORS
330
10000070
102
}
330
10000070
100
AcDbXrecord
1000
KFTB
  0
XRECORD
  5
10000077
102
{ACAD_REACTORS
330
10000074
102
}
330
10000074
100
AcDbXrecord
 40
17.5
  0
XRECORD
  5
10000075
102
{ACAD_REACTORS
330
10000074
102
}
330
10000074
100
AcDbXrecord
1000
LFhnD
  0
XRECORD
  5
10000076
102
{ACAD_REACTORS
330
10000074
102
}
330
10000074
100
AcDbXrecord
1000
LFSTB
  0
XRECORD
  5
10000078
102
{ACAD_REACTORS
330
10000074
102
}
330
10000074
100
AcDbXrecord
1000
KFTB
  0
XRECORD
  5
1000007B
102
{ACAD_REACTORS
330
1000007A
102
}
330
1000007A
100
AcDbXrecord
1000
LFZnD
  0
XRECORD
  5
1000007C
102
{ACAD_REACTORS
330
1000007A
102
}
330
1000007A
100
AcDbXrecord
1000
KFTB
  0
XRECORD
  5
1000007F
102
{ACAD_REACTORS
330
1000007E
102
}
330
1000007E
100
AcDbXrecord
1000
LF9mD
  0
XRECORD
  5
10000080
102
{ACAD_REACTORS
330
1000007E
102
}
330
1000007E
100
AcDbXrecord
1000
KFTB
  0
XRECORD
  5
10000085
102
{ACAD_REACTORS
330
10000082
102
}
330
10000082
100
AcDbXrecord
 40
0.472
  0
XRECORD
  5
10000083
102
{ACAD_REACTORS
330
10000082
102
}
330
10000082
100
AcDbXrecord
1000
LF1mD
  0
XRECORD
  5
10000084
102
{ACAD_REACTORS
330
10000082
102
}
330
10000082
100
AcDbXrecord
1000
LFSTB
  0
XRECORD
  5
10000086
102
{ACAD_REACTORS
330
10000082
102
}
330
10000082
100
AcDbXrecord
1000
KFTB
  0
XRECORD
  5
1000008B
102
{ACAD_REACTORS
330
10000088
102
}
330
10000088
100
AcDbXrecord
 40
11.9492
  0
XRECORD
  5
10000089
102
{ACAD_REACTORS
330
10000088
102
}
330
10000088
100
AcDbXrecord
1000
LFFmD
  0
XRECORD
  5
1000008A
102
{ACAD_REACTORS
330
10000088
102
}
330
10000088
100
AcDbXrecord
1000
LFSTB
  0
XRECORD
  5
1000008C
102
{ACAD_REACTORS
330
10000088
102
}
330
10000088
100
AcDbXrecord
1000
KFTB
  0
XRECORD
  5
10000091
102
{ACAD_REACTORS
330
1000008E
102
}
330
1000008E
100
AcDbXrecord
 40
0.472
  0
XRECORD
  5
1000008F
102
{ACAD_REACTORS
330
1000008E
102
}
330
1000008E
100
AcDbXrecord
1000
LFBfD
  0
XRECORD
  5
10000090
102
{ACAD_REACTORS
330
1000008E
102
}
330
1000008E
100
AcDbXrecord
1000
LFSTB
  0
XRECORD
  5
10000092
102
{ACAD_REACTORS
330
1000008E
102
}
330
1000008E
100
AcDbXrecord
1000
KFTB
  0
XRECORD
  5
10000095
102
{ACAD_REACTORS
330
10000094
102
}
330
10000094
100
AcDbXrecord
1000
LFRfD
  0
XRECORD
  5
10000096
102
{ACAD_REACTORS
330
10000094
102
}
330
10000094
100
AcDbXrecord
1000
KFTB
  0
XRECORD
  5
10000099
102
{ACAD_REACTORS
330
10000098
102
}
330
10000098
100
AcDbXrecord
1000
LFxkD
  0
XRECORD
  5
1000009A
102
{ACAD_REACTORS
330
10000098
102
}
330
10000098
100
AcDbXrecord
1000
KFTB
  0
XRECORD
  5
1000009F
102
{ACAD_REACTORS
330
1000009C
102
}
330
1000009C
100
AcDbXrecord
 40
17.5
  0
XRECORD
  5
1000009D
102
{ACAD_REACTORS
330
1000009C
102
}
330
1000009C
100
AcDbXrecord
1000
LFlkD
  0
XRECORD
  5
1000009E
102
{ACAD_REACTORS
330
1000009C
102
}
330
1000009C
100
AcDbXrecord
1000
LFSTB
  0
XRECORD
  5
100000A0
102
{ACAD_REACTORS
330
1000009C
102
}
330
1000009C
100
AcDbXrecord
1000
KFTB
  0
XRECORD
  5
100000A3
102
{ACAD_REACTORS
330
100000A2
102
}
330
100000A2
100
AcDbXrecord
1000
LFZkD
  0
XRECORD
  5
100000A4
102
{ACAD_REACTORS
330
100000A2
102
}
330
100000A2
100
AcDbXrecord
1000
KFTB
  0
XRECORD
  5
100000A7
102
{ACAD_REACTORS
330
100000A6
102
}
330
100000A6
100
AcDbXrecord
1000
LFteD
  0
XRECORD
  5
100000A8
102
{ACAD_REACTORS
330
100000A6
102
}
330
100000A6
100
AcDbXrecord
1000
KFTB
  0
XRECORD
  5
100000AD
102
{ACAD_REACTORS
330
100000AA
102
}
330
100000AA
100
AcDbXrecord
 40
0.472
  0
XRECORD
  5
100000AB
102
{ACAD_REACTORS
330
100000AA
102
}
330
100000AA
100
AcDbXrecord
1000
LFdeD
  0
XRECORD
  5
100000AC
102
{ACAD_REACTORS
330
100000AA
102
}
330
100000AA
100
AcDbXrecord
1000
LFSTB
  0
XRECORD
  5
100000AE
102
{ACAD_REACTORS
330
100000AA
102
}
330
100000AA
100
AcDbXrecord
1000
KFTB
  0
XRECORD
  5
100000B3
102
{ACAD_REACTORS
330
100000B0
102
}
330
100000B0
100
AcDbXrecord
 40
11.9492
  0
XRECORD
  5
100000B1
102
{ACAD_REACTORS
330
100000B0
102
}
330
100000B0
100
AcDbXrecord
1000
LFNmD
  0
XRECORD
  5
100000B2
102
{ACAD_REACTORS
330
100000B0
102
}
330
100000B0
100
AcDbXrecord
1000
LFSTB
  0
XRECORD
  5
100000B4
102
{ACAD_REACTORS
330
100000B0
102
}
330
100000B0
100
AcDbXrecord
1000
KFTB
  0
XRECORD
  5
100000B9
102
{ACAD_REACTORS
330
100000B6
102
}
330
100000B6
100
AcDbXrecord
 40
0.472
  0
XRECORD
  5
100000B7
102
{ACAD_REACTORS
330
100000B6
102
}
330
100000B6
100
AcDbXrecord
1000
LFJeD
  0
XRECORD
  5
100000B8
102
{ACAD_REACTORS
330
100000B6
102
}
330
100000B6
100
AcDbXrecord
1000
LFSTB
  0
XRECORD
  5
100000BA
102
{ACAD_REACTORS
330
100000B6
102
}
330
100000B6
100
AcDbXrecord
1000
KFTB
  0
XRECORD
  5
100000BD
102
{ACAD_REACTORS
330
100000BC
102
}
330
100000BC
100
AcDbXrecord
1000
LFZeD
  0
XRECORD
  5
100000BE
102
{ACAD_REACTORS
330
100000BC
102
}
330
100000BC
100
AcDbXrecord
1000
KFTB
  0
XRECORD
  5
100000C1
102
{ACAD_REACTORS
330
100000C0
102
}
330
100000C0
100
AcDbXrecord
1000
LFRkD
  0
XRECORD
  5
100000C2
102
{ACAD_REACTORS
330
100000C0
102
}
330
100000C0
100
AcDbXrecord
1000
KFTB
  0
XRECORD
  5
100000C7
102
{ACAD_REACTORS
330
100000C4
102
}
330
100000C4
100
AcDbXrecord
 40
17.5
  0
XRECORD
  5
100000C5
102
{ACAD_REACTORS
330
100000C4
102
}
330
100000C4
100
AcDbXrecord
1000
LFFkD
  0
XRECORD
  5
100000C6
102
{ACAD_REACTORS
330
100000C4
102
}
330
100000C4
100
AcDbXrecord
1000
LFSTB
  0
XRECORD
  5
100000C8
102
{ACAD_REACTORS
330
100000C4
102
}
330
100000C4
100
AcDbXrecord
1000
KFTB
  0
XRECORD
  5
100000CB
102
{ACAD_REACTORS
330
100000CA
102
}
330
100000CA
100
AcDbXrecord
1000
LF5jD
  0
XRECORD
  5
100000CC
102
{ACAD_REACTORS
330
100000CA
102
}
330
100000CA
100
AcDbXrecord
1000
KFTB
  0
XRECORD
  5
100000CF
102
{ACAD_REACTORS
330
100000CE
102
}
330
100000CE
100
AcDbXrecord
1000
LF1dD
  0
XRECORD
  5
100000D0
102
{ACAD_REACTORS
330
100000CE
102
}
330
100000CE
100
AcDbXrecord
1000
KFTB
  0
XRECORD
  5
100000D5
102
{ACAD_REACTORS
330
100000D2
102
}
330
100000D2
100
AcDbXrecord
 40
0.472
  0
XRECORD
  5
100000D3
102
{ACAD_REACTORS
330
100000D2
102
}
330
100000D2
100
AcDbXrecord
1000
LFldD
  0
XRECORD
  5
100000D4
102
{ACAD_REACTORS
330
100000D2
102
}
330
100000D2
100
AcDbXrecord
1000
LFSTB
  0
XRECORD
  5
100000D6
102
{ACAD_REACTORS
330
100000D2
102
}
330
100000D2
100
AcDbXrecord
1000
KFTB
  0
XRECORD
  5
100000DB
102
{ACAD_REACTORS
330
100000D8
102
}
330
100000D8
100
AcDbXrecord
 40
11.9492
  0
XRECORD
  5
100000D9
102
{ACAD_REACTORS
330
100000D8
102
}
330
100000D8
100
AcDbXrecord
1000
LFRmD
  0
XRECORD
  5
100000DA
102
{ACAD_REACTORS
330
100000D8
102
}
330
100000D8
100
AcDbXrecord
1000
LFSTB
  0
XRECORD
  5
100000DC
102
{ACAD_REACTORS
330
100000D8
102
}
330
100000D8
100
AcDbXrecord
1000
KFTB
  0
XRECORD
  5
100000E1
102
{ACAD_REACTORS
330
100000DE
102
}
330
100000DE
100
AcDbXrecord
 40
0.472
  0
XRECORD
  5
100000DF
102
{ACAD_REACTORS
330
100000DE
102
}
330
100000DE
100
AcDbXrecord
1000
LFRdD
  0
XRECORD
  5
100000E0
102
{ACAD_REACTORS
330
100000DE
102
}
330
100000DE
100
AcDbXrecord
1000
LFSTB
  0
XRECORD
  5
100000E2
102
{ACAD_REACTORS
330
100000DE
102
}
330
100000DE
100
AcDbXrecord
1000
KFTB
  0
XRECORD
  5
100000E5
102
{ACAD_REACTORS
330
100000E4
102
}
330
100000E4
100
AcDbXrecord
1000
LFhdD
  0
XRECORD
  5
100000E6
102
{ACAD_REACTORS
330
100000E4
102
}
330
100000E4
100
AcDbXrecord
1000
KFTB
  0
XRECORD
  5
100000E9
102
{ACAD_REACTORS
330
100000E8
102
}
330
100000E8
100
AcDbXrecord
1000
LFxjD
  0
XRECORD
  5
100000EA
102
{ACAD_REACTORS
330
100000E8
102
}
330
100000E8
100
AcDbXrecord
1000
KFTB
  0
XRECORD
  5
100000EF
102
{ACAD_REACTORS
330
100000EC
102
}
330
100000EC
100
AcDbXrecord
 40
17.5
  0
XRECORD
  5
100000ED
102
{ACAD_REACTORS
330
100000EC
102
}
330
100000EC
100
AcDbXrecord
1000
LFljD
  0
XRECORD
  5
100000EE
102
{ACAD_REACTORS
330
100000EC
102
}
330
100000EC
100
AcDbXrecord
1000
LFSTB
  0
XRECORD
  5
100000F0
102
{ACAD_REACTORS
330
100000EC
102
}
330
100000EC
100
AcDbXrecord
1000
KFTB
  0
XRECORD
  5
100000F3
102
{ACAD_REACTORS
330
100000F2
102
}
330
100000F2
100
AcDbXrecord
1000
LFZjD
  0
XRECORD
  5
100000F4
102
{ACAD_REACTORS
330
100000F2
102
}
330
100000F2
100
AcDbXrecord
1000
KFTB
  0
XRECORD
  5
100000F7
102
{ACAD_REACTORS
330
100000F6
102
}
330
100000F6
100
AcDbXrecord
1000
LF9cD
  0
XRECORD
  5
100000F8
102
{ACAD_REACTORS
330
100000F6
102
}
330
100000F6
100
AcDbXrecord
1000
KFTB
  0
XRECORD
  5
100000FD
102
{ACAD_REACTORS
330
100000FA
102
}
330
100000FA
100
AcDbXrecord
 40
0.472
  0
XRECORD
  5
100000FB
102
{ACAD_REACTORS
330
100000FA
102
}
330
100000FA
100
AcDbXrecord
1000
LFtcD
  0
XRECORD
  5
100000FC
102
{ACAD_REACTORS
330
100000FA
102
}
330
100000FA
100
AcDbXrecord
1000
LFSTB
  0
XRECORD
  5
100000FE
102
{ACAD_REACTORS
330
100000FA
102
}
330
100000FA
100
AcDbXrecord
1000
KFTB
  0
XRECORD
  5
10000103
102
{ACAD_REACTORS
330
10000100
102
}
330
10000100
100
AcDbXrecord
 40
11.9492
  0
XRECORD
  5
10000101
102
{ACAD_REACTORS
330
10000100
102
}
330
10000100
100
AcDbXrecord
1000
LFVmD
  0
XRECORD
  5
10000102
102
{ACAD_REACTORS
330
10000100
102
}
330
10000100
100
AcDbXrecord
1000
LFSTB
  0
XRECORD
  5
10000104
102
{ACAD_REACTORS
330
10000100
102
}
330
10000100
100
AcDbXrecord
1000
KFTB
  0
XRECORD
  5
10000109
102
{ACAD_REACTORS
330
10000106
102
}
330
10000106
100
AcDbXrecord
 40
0.472
  0
XRECORD
  5
10000107
102
{ACAD_REACTORS
330
10000106
102
}
330
10000106
100
AcDbXrecord
1000
LFZcD
  0
XRECORD
  5
10000108
102
{ACAD_REACTORS
330
10000106
102
}
330
10000106
100
AcDbXrecord
1000
LFSTB
  0
XRECORD
  5
1000010A
102
{ACAD_REACTORS
330
10000106
102
}
330
10000106
100
AcDbXrecord
1000
KFTB
  0
XRECORD
  5
1000010D
102
{ACAD_REACTORS
330
1000010C
102
}
330
1000010C
100
AcDbXrecord
1000
LFpcD
  0
XRECORD
  5
1000010E
102
{ACAD_REACTORS
330
1000010C
102
}
330
1000010C
100
AcDbXrecord
1000
KFTB
  0
XRECORD
  5
10000111
102
{ACAD_REACTORS
330
10000110
102
}
330
10000110
100
AcDbXrecord
1000
LFRjD
  0
XRECORD
  5
10000112
102
{ACAD_REACTORS
330
10000110
102
}
330
10000110
100
AcDbXrecord
1000
KFTB
  0
XRECORD
  5
10000117
102
{ACAD_REACTORS
330
10000114
102
}
330
10000114
100
AcDbXrecord
 40
17.5
  0
XRECORD
  5
10000115
102
{ACAD_REACTORS
330
10000114
102
}
330
10000114
100
AcDbXrecord
1000
LFFjD
  0
XRECORD
  5
10000116
102
{ACAD_REACTORS
330
10000114
102
}
330
10000114
100
AcDbXrecord
1000
LFSTB
  0
XRECORD
  5
10000118
102
{ACAD_REACTORS
330
10000114
102
}
330
10000114
100
AcDbXrecord
1000
KFTB
  0
XRECORD
  5
1000011B
102
{ACAD_REACTORS
330
1000011A
102
}
330
1000011A
100
AcDbXrecord
1000
LF5iD
  0
XRECORD
  5
1000011C
102
{ACAD_REACTORS
330
1000011A
102
}
330
1000011A
100
AcDbXrecord
1000
KFTB
  0
XRECORD
  5
1000011F
102
{ACAD_REACTORS
330
1000011E
102
}
330
1000011E
100
AcDbXrecord
1000
LFFcD
  0
XRECORD
  5
10000120
102
{ACAD_REACTORS
330
1000011E
102
}
330
1000011E
100
AcDbXrecord
1000
KFTB
  0
XRECORD
  5
10000125
102
{ACAD_REACTORS
330
10000122
102
}
330
10000122
100
AcDbXrecord
 40
0.472
  0
XRECORD
  5
10000123
102
{ACAD_REACTORS
330
10000122
102
}
330
10000122
100
AcDbXrecord
1000
LF1bD
  0
XRECORD
  5
10000124
102
{ACAD_REACTORS
330
10000122
102
}
330
10000122
100
AcDbXrecord
1000
LFSTB
  0
XRECORD
  5
10000126
102
{ACAD_REACTORS
330
10000122
102
}
330
10000122
100
AcDbXrecord
1000
KFTB
  0
XRECORD
  5
1000012B
102
{ACAD_REACTORS
330
10000128
102
}
330
10000128
100
AcDbXrecord
 40
11.9492
  0
XRECORD
  5
10000129
102
{ACAD_REACTORS
330
10000128
102
}
330
10000128
100
AcDbXrecord
1000
LFZmD
  0
XRECORD
  5
1000012A
102
{ACAD_REACTORS
330
10000128
102
}
330
10000128
100
AcDbXrecord
1000
LFSTB
  0
XRECORD
  5
1000012C
102
{ACAD_REACTORS
330
10000128
102
}
330
10000128
100
AcDbXrecord
1000
KFTB
  0
XRECORD
  5
10000131
102
{ACAD_REACTORS
330
1000012E
102
}
330
1000012E
100
AcDbXrecord
 40
0.472
  0
XRECORD
  5
1000012F
102
{ACAD_REACTORS
330
1000012E
102
}
330
1000012E
100
AcDbXrecord
1000
LFhbD
  0
XRECORD
  5
10000130
102
{ACAD_REACTORS
330
1000012E
102
}
330
1000012E
100
AcDbXrecord
1000
LFSTB
  0
XRECORD
  5
10000132
102
{ACAD_REACTORS
330
1000012E
102
}
330
1000012E
100
AcDbXrecord
1000
KFTB
  0
XRECORD
  5
10000135
102
{ACAD_REACTORS
330
10000134
102
}
330
10000134
100
AcDbXrecord
1000
LFxbD
  0
XRECORD
  5
10000136
102
{ACAD_REACTORS
330
10000134
102
}
330
10000134
100
AcDbXrecord
1000
KFTB
  0
XRECORD
  5
10000139
102
{ACAD_REACTORS
330
10000138
102
}
330
10000138
100
AcDbXrecord
1000
LFxiD
  0
XRECORD
  5
1000013A
102
{ACAD_REACTORS
330
10000138
102
}
330
10000138
100
AcDbXrecord
1000
KFTB
  0
XRECORD
  5
1000013F
102
{ACAD_REACTORS
330
1000013C
102
}
330
1000013C
100
AcDbXrecord
 40
17.5
  0
XRECORD
  5
1000013D
102
{ACAD_REACTORS
330
1000013C
102
}
330
1000013C
100
AcDbXrecord
1000
LFliD
  0
XRECORD
  5
1000013E
102
{ACAD_REACTORS
330
1000013C
102
}
330
1000013C
100
AcDbXrecord
1000
LFSTB
  0
XRECORD
  5
10000140
102
{ACAD_REACTORS
330
1000013C
102
}
330
1000013C
100
AcDbXrecord
1000
KFTB
  0
XRECORD
  5
10000143
102
{ACAD_REACTORS
330
10000142
102
}
330
10000142
100
AcDbXrecord
1000
LFZiD
  0
XRECORD
  5
10000144
102
{ACAD_REACTORS
330
10000142
102
}
330
10000142
100
AcDbXrecord
1000
KFTB
  0
XRECORD
  5
10000147
102
{ACAD_REACTORS
330
10000146
102
}
330
10000146
100
AcDbXrecord
1000
LFNbD
  0
XRECORD
  5
10000148
102
{ACAD_REACTORS
330
10000146
102
}
330
10000146
100
AcDbXrecord
1000
KFTB
  0
XRECORD
  5
1000014D
102
{ACAD_REACTORS
330
1000014A
102
}
330
1000014A
100
AcDbXrecord
 40
0.472
  0
XRECORD
  5
1000014B
102
{ACAD_REACTORS
330
1000014A
102
}
330
1000014A
100
AcDbXrecord
1000
LF9aD
  0
XRECORD
  5
1000014C
102
{ACAD_REACTORS
330
1000014A
102
}
330
1000014A
100
AcDbXrecord
1000
LFSTB
  0
XRECORD
  5
1000014E
102
{ACAD_REACTORS
330
1000014A
102
}
330
1000014A
100
AcDbXrecord
1000
KFTB
  0
XRECORD
  5
10000153
102
{ACAD_REACTORS
330
10000150
102
}
330
10000150
100
AcDbXrecord
 40
11.9492
  0
XRECORD
  5
10000151
102
{ACAD_REACTORS
330
10000150
102
}
330
10000150
100
AcDbXrecord
1000
LFdmD
  0
XRECORD
  5
10000152
102
{ACAD_REACTORS
330
10000150
102
}
330
10000150
100
AcDbXrecord
1000
LFSTB
  0
XRECORD
  5
10000154
102
{ACAD_REACTORS
330
10000150
102
}
330
10000150
100
AcDbXrecord
1000
KFTB
  0
XRECORD
  5
10000159
102
{ACAD_REACTORS
330
10000156
102
}
330
10000156
100
AcDbXrecord
 40
0.472
  0
XRECORD
  5
10000157
102
{ACAD_REACTORS
330
10000156
102
}
330
10000156
100
AcDbXrecord
1000
LFpaD
  0
XRECORD
  5
10000158
102
{ACAD_REACTORS
330
10000156
102
}
330
10000156
100
AcDbXrecord
1000
LFSTB
  0
XRECORD
  5
1000015A
102
{ACAD_REACTORS
330
10000156
102
}
330
10000156
100
AcDbXrecord
1000
KFTB
  0
XRECORD
  5
1000015D
102
{ACAD_REACTORS
330
1000015C
102
}
330
1000015C
100
AcDbXrecord
1000
LF5aD
  0
XRECORD
  5
1000015E
102
{ACAD_REACTORS
330
1000015C
102
}
330
1000015C
100
AcDbXrecord
1000
KFTB
  0
XRECORD
  5
10000161
102
{ACAD_REACTORS
330
10000160
102
}
330
10000160
100
AcDbXrecord
1000
LFRiD
  0
XRECORD
  5
10000162
102
{ACAD_REACTORS
330
10000160
102
}
330
10000160
100
AcDbXrecord
1000
KFTB
  0
XRECORD
  5
10000167
102
{ACAD_REACTORS
330
10000164
102
}
330
10000164
100
AcDbXrecord
 40
17.5
  0
XRECORD
  5
10000165
102
{ACAD_REACTORS
330
10000164
102
}
330
10000164
100
AcDbXrecord
1000
LFFiD
  0
XRECORD
  5
10000166
102
{ACAD_REACTORS
330
10000164
102
}
330
10000164
100
AcDbXrecord
1000
LFSTB
  0
XRECORD
  5
10000168
102
{ACAD_REACTORS
330
10000164
102
}
330
10000164
100
AcDbXrecord
1000
KFTB
  0
XRECORD
  5
1000016B
102
{ACAD_REACTORS
330
1000016A
102
}
330
1000016A
100
AcDbXrecord
1000
LF5hD
  0
XRECORD
  5
1000016C
102
{ACAD_REACTORS
330
1000016A
102
}
330
1000016A
100
AcDbXrecord
1000
KFTB
  0
XRECORD
  5
1000016F
102
{ACAD_REACTORS
330
1000016E
102
}
330
1000016E
100
AcDbXrecord
1000
LFVaD
  0
XRECORD
  5
10000170
102
{ACAD_REACTORS
330
1000016E
102
}
330
1000016E
100
AcDbXrecord
1000
KFTB
  0
XRECORD
  5
10000175
102
{ACAD_REACTORS
330
10000172
102
}
330
10000172
100
AcDbXrecord
 40
0.472
  0
XRECORD
  5
10000173
102
{ACAD_REACTORS
330
10000172
102
}
330
10000172
100
AcDbXrecord
1000
LFFaD
  0
XRECORD
  5
10000174
102
{ACAD_REACTORS
330
10000172
102
}
330
10000172
100
AcDbXrecord
1000
LFSTB
  0
XRECORD
  5
10000176
102
{ACAD_REACTORS
330
10000172
102
}
330
10000172
100
AcDbXrecord
1000
KFTB
  0
XRECORD
  5
1000017B
102
{ACAD_REACTORS
330
10000178
102
}
330
10000178
100
AcDbXrecord
 40
11.9492
  0
XRECORD
  5
10000179
102
{ACAD_REACTORS
330
10000178
102
}
330
10000178
100
AcDbXrecord
1000
LFhmD
  0
XRECORD
  5
1000017A
102
{ACAD_REACTORS
330
10000178
102
}
330
10000178
100
AcDbXrecord
1000
LFSTB
  0
XRECORD
  5
1000017C
102
{ACAD_REACTORS
330
10000178
102
}
330
10000178
100
AcDbXrecord
1000
KFTB
  0
XRECORD
  5
10000181
102
{ACAD_REACTORS
330
1000017E
102
}
330
1000017E
100
AcDbXrecord
 40
0.472
  0
XRECORD
  5
1000017F
102
{ACAD_REACTORS
330
1000017E
102
}
330
1000017E
100
AcDbXrecord
1000
LFxZD
  0
XRECORD
  5
10000180
102
{ACAD_REACTORS
330
1000017E
102
}
330
1000017E
100
AcDbXrecord
1000
LFSTB
  0
XRECORD
  5
10000182
102
{ACAD_REACTORS
330
1000017E
102
}
330
1000017E
100
AcDbXrecord
1000
KFTB
  0
XRECORD
  5
10000185
102
{ACAD_REACTORS
330
10000184
102
}
330
10000184
100
AcDbXrecord
1000
LFBaD
  0
XRECORD
  5
10000186
102
{ACAD_REACTORS
330
10000184
102
}
330
10000184
100
AcDbXrecord
1000
KFTB
  0
XRECORD
  5
10000189
102
{ACAD_REACTORS
330
10000188
102
}
330
10000188
100
AcDbXrecord
1000
LFxhD
  0
XRECORD
  5
1000018A
102
{ACAD_REACTORS
330
10000188
102
}
330
10000188
100
AcDbXrecord
1000
KFTB
  0
XRECORD
  5
1000018F
102
{ACAD_REACTORS
330
1000018C
102
}
330
1000018C
100
AcDbXrecord
 40
17.5
  0
XRECORD
  5
1000018D
102
{ACAD_REACTORS
330
1000018C
102
}
330
1000018C
100
AcDbXrecord
1000
LFlhD
  0
XRECORD
  5
1000018E
102
{ACAD_REACTORS
330
1000018C
102
}
330
1000018C
100
AcDbXrecord
1000
LFSTB
  0
XRECORD
  5
10000190
102
{ACAD_REACTORS
330
1000018C
102
}
330
1000018C
100
AcDbXrecord
1000
KFTB
  0
XRECORD
  5
10000193
102
{ACAD_REACTORS
330
10000192
102
}
330
10000192
100
AcDbXrecord
1000
LFZhD
  0
XRECORD
  5
10000194
102
{ACAD_REACTORS
330
10000192
102
}
330
10000192
100
AcDbXrecord
1000
KFTB
  0
XRECORD
  5
10000197
102
{ACAD_REACTORS
330
10000196
102
}
330
10000196
100
AcDbXrecord
1000
LFdZD
  0
XRECORD
  5
10000198
102
{ACAD_REACTORS
330
10000196
102
}
330
10000196
100
AcDbXrecord
1000
KFTB
  0
XRECORD
  5
1000019D
102
{ACAD_REACTORS
330
1000019A
102
}
330
1000019A
100
AcDbXrecord
 40
0.472
  0
XRECORD
  5
1000019B
102
{ACAD_REACTORS
330
1000019A
102
}
330
1000019A
100
AcDbXrecord
1000
LFNZD
  0
XRECORD
  5
1000019C
102
{ACAD_REACTORS
330
1000019A
102
}
330
1000019A
100
AcDbXrecord
1000
LFSTB
  0
XRECORD
  5
1000019E
102
{ACAD_REACTORS
330
1000019A
102
}
330
1000019A
100
AcDbXrecord
1000
KFTB
  0
XRECORD
  5
100001A3
102
{ACAD_REACTORS
330
100001A0
102
}
330
100001A0
100
AcDbXrecord
 40
11.9492
  0
XRECORD
  5
100001A1
102
{ACAD_REACTORS
330
100001A0
102
}
330
100001A0
100
AcDbXrecord
1000
LFlmD
  0
XRECORD
  5
100001A2
102
{ACAD_REACTORS
330
100001A0
102
}
330
100001A0
100
AcDbXrecord
1000
LFSTB
  0
XRECORD
  5
100001A4
102
{ACAD_REACTORS
330
100001A0
102
}
330
100001A0
100
AcDbXrecord
1000
KFTB
  0
XRECORD
  5
100001A9
102
{ACAD_REACTORS
330
100001A6
102
}
330
100001A6
100
AcDbXrecord
 40
0.472
  0
XRECORD
  5
100001A7
102
{ACAD_REACTORS
330
100001A6
102
}
330
100001A6
100
AcDbXrecord
1000
LF5YD
  0
XRECORD
  5
100001A8
102
{ACAD_REACTORS
330
100001A6
102
}
330
100001A6
100
AcDbXrecord
1000
LFSTB
  0
XRECORD
  5
100001AA
102
{ACAD_REACTORS
330
100001A6
102
}
330
100001A6
100
AcDbXrecord
1000
KFTB
  0
XRECORD
  5
100001AD
102
{ACAD_REACTORS
330
100001AC
102
}
330
100001AC
100
AcDbXrecord
1000
LFJZD
  0
XRECORD
  5
100001AE
102
{ACAD_REACTORS
330
100001AC
102
}
330
100001AC
100
AcDbXrecord
1000
KFTB
  0
XRECORD
  5
100001B1
102
{ACAD_REACTORS
330
100001B0
102
}
330
100001B0
100
AcDbXrecord
1000
LFRhD
  0
XRECORD
  5
100001B2
102
{ACAD_REACTORS
330
100001B0
102
}
330
100001B0
100
AcDbXrecord
1000
KFTB
  0
XRECORD
  5
100001B7
102
{ACAD_REACTORS
330
100001B4
102
}
330
100001B4
100
AcDbXrecord
 40
17.5
  0
XRECORD
  5
100001B5
102
{ACAD_REACTORS
330
100001B4
102
}
330
100001B4
100
AcDbXrecord
1000
LFFhD
  0
XRECORD
  5
100001B6
102
{ACAD_REACTORS
330
100001B4
102
}
330
100001B4
100
AcDbXrecord
1000
LFSTB
  0
XRECORD
  5
100001B8
102
{ACAD_REACTORS
330
100001B4
102
}
330
100001B4
100
AcDbXrecord
1000
KFTB
  0
XRECORD
  5
100001BB
102
{ACAD_REACTORS
330
100001BA
102
}
330
100001BA
100
AcDbXrecord
1000
LF5gD
  0
XRECORD
  5
100001BC
102
{ACAD_REACTORS
330
100001BA
102
}
330
100001BA
100
AcDbXrecord
1000
KFTB
  0
XRECORD
  5
100001BF
102
{ACAD_REACTORS
330
100001BE
102
}
330
100001BE
100
AcDbXrecord
1000
LFlYD
  0
XRECORD
  5
100001C0
102
{ACAD_REACTORS
330
100001BE
102
}
330
100001BE
100
AcDbXrecord
1000
KFTB
  0
XRECORD
  5
100001C5
102
{ACAD_REACTORS
330
100001C2
102
}
330
100001C2
100
AcDbXrecord
 40
0.472
  0
XRECORD
  5
100001C3
102
{ACAD_REACTORS
330
100001C2
102
}
330
100001C2
100
AcDbXrecord
1000
LFVYD
  0
XRECORD
  5
100001C4
102
{ACAD_REACTORS
330
100001C2
102
}
330
100001C2
100
AcDbXrecord
1000
LFSTB
  0
XRECORD
  5
100001C6
102
{ACAD_REACTORS
330
100001C2
102
}
330
100001C2
100
AcDbXrecord
1000
KFTB
  0
XRECORD
  5
100001CB
102
{ACAD_REACTORS
330
100001C8
102
}
330
100001C8
100
AcDbXrecord
 40
11.9492
  0
XRECORD
  5
100001C9
102
{ACAD_REACTORS
330
100001C8
102
}
330
100001C8
100
AcDbXrecord
1000
LFpmD
  0
XRECORD
  5
100001CA
102
{ACAD_REACTORS
330
100001C8
102
}
330
100001C8
100
AcDbXrecord
1000
LFSTB
  0
XRECORD
  5
100001CC
102
{ACAD_REACTORS
330
100001C8
102
}
330
100001C8
100
AcDbXrecord
1000
KFTB
  0
XRECORD
  5
100001D1
102
{ACAD_REACTORS
330
100001CE
102
}
330
100001CE
100
AcDbXrecord
 40
0.472
  0
XRECORD
  5
100001CF
102
{ACAD_REACTORS
330
100001CE
102
}
330
100001CE
100
AcDbXrecord
1000
LFBYD
  0
XRECORD
  5
100001D0
102
{ACAD_REACTORS
330
100001CE
102
}
330
100001CE
100
AcDbXrecord
1000
LFSTB
  0
XRECORD
  5
100001D2
102
{ACAD_REACTORS
330
100001CE
102
}
330
100001CE
100
AcDbXrecord
1000
KFTB
  0
XRECORD
  5
100001D5
102
{ACAD_REACTORS
330
100001D4
102
}
330
100001D4
100
AcDbXrecord
1000
LFRYD
  0
XRECORD
  5
100001D6
102
{ACAD_REACTORS
330
100001D4
102
}
330
100001D4
100
AcDbXrecord
1000
KFTB
  0
XRECORD
  5
100001D9
102
{ACAD_REACTORS
330
100001D8
102
}
330
100001D8
100
AcDbXrecord
1000
LFxgD
  0
XRECORD
  5
100001DA
102
{ACAD_REACTORS
330
100001D8
102
}
330
100001D8
100
AcDbXrecord
1000
KFTB
  0
XRECORD
  5
100001DF
102
{ACAD_REACTORS
330
100001DC
102
}
330
100001DC
100
AcDbXrecord
 40
17.5
  0
XRECORD
  5
100001DD
102
{ACAD_REACTORS
330
100001DC
102
}
330
100001DC
100
AcDbXrecord
1000
LFlgD
  0
XRECORD
  5
100001DE
102
{ACAD_REACTORS
330
100001DC
102
}
330
100001DC
100
AcDbXrecord
1000
LFSTB
  0
XRECORD
  5
100001E0
102
{ACAD_REACTORS
330
100001DC
102
}
330
100001DC
100
AcDbXrecord
1000
KFTB
  0
XRECORD
  5
100001E3
102
{ACAD_REACTORS
330
100001E2
102
}
330
100001E2
100
AcDbXrecord
1000
LFZgD
  0
XRECORD
  5
100001E4
102
{ACAD_REACTORS
330
100001E2
102
}
330
100001E2
100
AcDbXrecord
1000
KFTB
  0
XRECORD
  5
100001E7
102
{ACAD_REACTORS
330
100001E6
102
}
330
100001E6
100
AcDbXrecord
1000
LFtXD
  0
XRECORD
  5
100001E8
102
{ACAD_REACTORS
330
100001E6
102
}
330
100001E6
100
AcDbXrecord
1000
KFTB
  0
XRECORD
  5
100001ED
102
{ACAD_REACTORS
330
100001EA
102
}
330
100001EA
100
AcDbXrecord
 40
0.472
  0
XRECORD
  5
100001EB
102
{ACAD_REACTORS
330
100001EA
102
}
330
100001EA
100
AcDbXrecord
1000
LFdXD
  0
XRECORD
  5
100001EC
102
{ACAD_REACTORS
330
100001EA
102
}
330
100001EA
100
AcDbXrecord
1000
LFSTB
  0
XRECORD
  5
100001EE
102
{ACAD_REACTORS
330
100001EA
102
}
330
100001EA
100
AcDbXrecord
1000
KFTB
  0
XRECORD
  5
100001F3
102
{ACAD_REACTORS
330
100001F0
102
}
330
100001F0
100
AcDbXrecord
 40
11.9492
  0
XRECORD
  5
100001F1
102
{ACAD_REACTORS
330
100001F0
102
}
330
100001F0
100
AcDbXrecord
1000
LFtmD
  0
XRECORD
  5
100001F2
102
{ACAD_REACTORS
330
100001F0
102
}
330
100001F0
100
AcDbXrecord
1000
LFSTB
  0
XRECORD
  5
100001F4
102
{ACAD_REACTORS
330
100001F0
102
}
330
100001F0
100
AcDbXrecord
1000
KFTB
  0
XRECORD
  5
100001F9
102
{ACAD_REACTORS
330
100001F6
102
}
330
100001F6
100
AcDbXrecord
 40
0.472
  0
XRECORD
  5
100001F7
102
{ACAD_REACTORS
330
100001F6
102
}
330
100001F6
100
AcDbXrecord
1000
LFJXD
  0
XRECORD
  5
100001F8
102
{ACAD_REACTORS
330
100001F6
102
}
330
100001F6
100
AcDbXrecord
1000
LFSTB
  0
XRECORD
  5
100001FA
102
{ACAD_REACTORS
330
100001F6
102
}
330
100001F6
100
AcDbXrecord
1000
KFTB
  0
XRECORD
  5
100001FD
102
{ACAD_REACTORS
330
100001FC
102
}
330
100001FC
100
AcDbXrecord
1000
LFZXD
  0
XRECORD
  5
100001FE
102
{ACAD_REACTORS
330
100001FC
102
}
330
100001FC
100
AcDbXrecord
1000
KFTB
  0
XRECORD
  5
10000201
102
{ACAD_REACTORS
330
10000200
102
}
330
10000200
100
AcDbXrecord
1000
LFRgD
  0
XRECORD
  5
10000202
102
{ACAD_REACTORS
330
10000200
102
}
330
10000200
100
AcDbXrecord
1000
KFTB
  0
XRECORD
  5
10000207
102
{ACAD_REACTORS
330
10000204
102
}
330
10000204
100
AcDbXrecord
 40
17.5
  0
XRECORD
  5
10000205
102
{ACAD_REACTORS
330
10000204
102
}
330
10000204
100
AcDbXrecord
1000
LFFgD
  0
XRECORD
  5
10000206
102
{ACAD_REACTORS
330
10000204
102
}
330
10000204
100
AcDbXrecord
1000
LFSTB
  0
XRECORD
  5
10000208
102
{ACAD_REACTORS
330
10000204
102
}
330
10000204
100
AcDbXrecord
1000
KFTB
  0
XRECORD
  5
1000020B
102
{ACAD_REACTORS
330
1000020A
102
}
330
1000020A
100
AcDbXrecord
1000
LF5fD
  0
XRECORD
  5
1000020C
102
{ACAD_REACTORS
330
1000020A
102
}
330
1000020A
100
AcDbXrecord
1000
KFTB
  0
XRECORD
  5
1000020F
102
{ACAD_REACTORS
330
1000020E
102
}
330
1000020E
100
AcDbXrecord
1000
LF1WD
  0
XRECORD
  5
10000210
102
{ACAD_REACTORS
330
1000020E
102
}
330
1000020E
100
AcDbXrecord
1000
KFTB
  0
XRECORD
  5
10000215
102
{ACAD_REACTORS
330
10000212
102
}
330
10000212
100
AcDbXrecord
 40
0.472
  0
XRECORD
  5
10000213
102
{ACAD_REACTORS
330
10000212
102
}
330
10000212
100
AcDbXrecord
1000
LFlWD
  0
XRECORD
  5
10000214
102
{ACAD_REACTORS
330
10000212
102
}
330
10000212
100
AcDbXrecord
1000
LFSTB
  0
XRECORD
  5
10000216
102
{ACAD_REACTORS
330
10000212
102
}
330
10000212
100
AcDbXrecord
1000
KFTB
  0
XRECORD
  5
1000021B
102
{ACAD_REACTORS
330
10000218
102
}
330
10000218
100
AcDbXrecord
 40
11.9492
  0
XRECORD
  5
10000219
102
{ACAD_REACTORS
330
10000218
102
}
330
10000218
100
AcDbXrecord
1000
LFxmD
  0
XRECORD
  5
1000021A
102
{ACAD_REACTORS
330
10000218
102
}
330
10000218
100
AcDbXrecord
1000
LFSTB
  0
XRECORD
  5
1000021C
102
{ACAD_REACTORS
330
10000218
102
}
330
10000218
100
AcDbXrecord
1000
KFTB
  0
XRECORD
  5
10000221
102
{ACAD_REACTORS
330
1000021E
102
}
330
1000021E
100
AcDbXrecord
 40
0.472
  0
XRECORD
  5
1000021F
102
{ACAD_REACTORS
330
1000021E
102
}
330
1000021E
100
AcDbXrecord
1000
LFRWD
  0
XRECORD
  5
10000220
102
{ACAD_REACTORS
330
1000021E
102
}
330
1000021E
100
AcDbXrecord
1000
LFSTB
  0
XRECORD
  5
10000222
102
{ACAD_REACTORS
330
1000021E
102
}
330
1000021E
100
AcDbXrecord
1000
KFTB
  0
XRECORD
  5
10000225
102
{ACAD_REACTORS
330
10000224
102
}
330
10000224
100
AcDbXrecord
1000
LFhWD
  0
XRECORD
  5
10000226
102
{ACAD_REACTORS
330
10000224
102
}
330
10000224
100
AcDbXrecord
1000
KFTB
  0
XRECORD
  5
10000229
102
{ACAD_REACTORS
330
10000228
102
}
330
10000228
100
AcDbXrecord
1000
LFxfD
  0
XRECORD
  5
1000022A
102
{ACAD_REACTORS
330
10000228
102
}
330
10000228
100
AcDbXrecord
1000
KFTB
  0
XRECORD
  5
1000022F
102
{ACAD_REACTORS
330
1000022C
102
}
330
1000022C
100
AcDbXrecord
 40
17.5
  0
XRECORD
  5
1000022D
102
{ACAD_REACTORS
330
1000022C
102
}
330
1000022C
100
AcDbXrecord
1000
LFlfD
  0
XRECORD
  5
1000022E
102
{ACAD_REACTORS
330
1000022C
102
}
330
1000022C
100
AcDbXrecord
1000
LFSTB
  0
XRECORD
  5
10000230
102
{ACAD_REACTORS
330
1000022C
102
}
330
1000022C
100
AcDbXrecord
1000
KFTB
  0
XRECORD
  5
10000233
102
{ACAD_REACTORS
330
10000232
102
}
330
10000232
100
AcDbXrecord
1000
LFZfD
  0
XRECORD
  5
10000234
102
{ACAD_REACTORS
330
10000232
102
}
330
10000232
100
AcDbXrecord
1000
KFTB
  0
XRECORD
  5
10000237
102
{ACAD_REACTORS
330
10000236
102
}
330
10000236
100
AcDbXrecord
1000
LF9VD
  0
XRECORD
  5
10000238
102
{ACAD_REACTORS
330
10000236
102
}
330
10000236
100
AcDbXrecord
1000
KFTB
  0
XRECORD
  5
1000023D
102
{ACAD_REACTORS
330
1000023A
102
}
330
1000023A
100
AcDbXrecord
 40
0.472
  0
XRECORD
  5
1000023B
102
{ACAD_REACTORS
330
1000023A
102
}
330
1000023A
100
AcDbXrecord
1000
LFtVD
  0
XRECORD
  5
1000023C
102
{ACAD_REACTORS
330
1000023A
102
}
330
1000023A
100
AcDbXrecord
1000
LFSTB
  0
XRECORD
  5
1000023E
102
{ACAD_REACTORS
330
1000023A
102
}
330
1000023A
100
AcDbXrecord
1000
KFTB
  0
MATERIAL
  5
45
102
{ACAD_REACTORS
330
43
102
}
102
{ACAD_XDICTIONARY
360
10000274
102
}
330
43
100
AcDbMaterial
  1
BYBLOCK
  0
MATERIAL
  5
44
102
{ACAD_REACTORS
330
43
102
}
102
{ACAD_XDICTIONARY
360
10000272
102
}
330
43
100
AcDbMaterial
  1
BYLAYER
  0
MATERIAL
  5
46
102
{ACAD_REACTORS
330
43
102
}
102
{ACAD_XDICTIONARY
360
10000276
102
}
330
43
100
AcDbMaterial
  1
GLOBAL
  0
ACAD_PROXY_OBJECT
  5
5C
102
{ACAD_REACTORS
330
5B
102
}
330
5B
100
AcDbProxyObject
 90
      499
 91
      505
 93
      610
310
40901902A4063FBFFFFFE0000000000000020400000000000020404214DD185B99185C990000000000000104090141901A00000000000004100000000000000041025764000000000000039000
340
14
340
0
340
11
340
0
 94
        0
1001
ACAD_MLEADERVER
1070
     2
  0
MLINESTYLE
  5
18
102
{ACAD_REACTORS
330
17
102
}
330
17
100
AcDbMlineStyle
  2
Standard
 70
     0
  3

 62
   256
 51
90.0
 52
90.0
 71
     2
 49
0.5
 62
   256
  6
BYLAYER
 49
-0.5
 62
   256
  6
BYLAYER
  0
ACAD_PROXY_OBJECT
  5
10000023
102
{ACAD_REACTORS
330
47
102
}
330
47
100
AcDbProxyObject
 90
      499
 91
      503
 93
      121
310
9053130303A310000000000001650100
  0
ACAD_PROXY_OBJECT
  5
1000001D
102
{ACAD_REACTORS
330
47
102
}
330
47
100
AcDbProxyObject
 90
      499
 91
      503
 93
      113
310
90431303A310000000000000910100
  0
ACAD_PROXY_OBJECT
  5
1000001E
102
{ACAD_REACTORS
330
47
102
}
330
47
100
AcDbProxyObject
 90
      499
 91
      503
 93
      113
310
90431323A310000000000000A10100
  0
ACAD_PROXY_OBJECT
  5
1000001F
102
{ACAD_REACTORS
330
47
102
}
330
47
100
AcDbProxyObject
 90
      499
 91
      503
 93
      113
310
90431363A310000000000000C10100
  0
ACAD_PROXY_OBJECT
  5
10000006
102
{ACAD_REACTORS
330
47
102
}
330
47
100
AcDbProxyObject
 90
      499
 91
      503
 93
       41
310
903313A31500
  0
ACAD_PROXY_OBJECT
  5
1000000D
102
{ACAD_REACTORS
330
47
102
}
330
47
100
AcDbProxyObject
 90
      499
 91
      503
 93
      113
310
904313A31304000000000000244000
  0
ACAD_PROXY_OBJECT
  5
10000016
102
{ACAD_REACTORS
330
47
102
}
330
47
100
AcDbProxyObject
 90
      499
 91
      503
 93
      121
310
905313A3130304000000000000594000
  0
ACAD_PROXY_OBJECT
  5
1000000E
102
{ACAD_REACTORS
330
47
102
}
330
47
100
AcDbProxyObject
 90
      499
 91
      503
 93
      113
310
904313A31324000000000000284000
  0
ACAD_PROXY_OBJECT
  5
1000000F
102
{ACAD_REACTORS
330
47
102
}
330
47
100
AcDbProxyObject
 90
      499
 91
      503
 93
      113
310
904313A31364000000000000304000
  0
ACAD_PROXY_OBJECT
  5
10000007
102
{ACAD_REACTORS
330
47
102
}
330
47
100
AcDbProxyObject
 90
      499
 91
      503
 93
      105
310
903313A324000000000000004000
  0
ACAD_PROXY_OBJECT
  5
10000010
102
{ACAD_REACTORS
330
47
102
}
330
47
100
AcDbProxyObject
 90
      499
 91
      503
 93
      113
310
904313A32304000000000000344000
  0
ACAD_PROXY_OBJECT
  5
10000011
102
{ACAD_REACTORS
330
47
102
}
330
47
100
AcDbProxyObject
 90
      499
 91
      503
 93
      113
310
904313A32354000000000000394000
  0
ACAD_PROXY_OBJECT
  5
10000008
102
{ACAD_REACTORS
330
47
102
}
330
47
100
AcDbProxyObject
 90
      499
 91
      503
 93
      105
310
903313A334000000000000084000
  0
ACAD_PROXY_OBJECT
  5
10000012
102
{ACAD_REACTORS
330
47
102
}
330
47
100
AcDbProxyObject
 90
      499
 91
      503
 93
      113
310
904313A33324000000000000404000
  0
ACAD_PROXY_OBJECT
  5
10000009
102
{ACAD_REACTORS
330
47
102
}
330
47
100
AcDbProxyObject
 90
      499
 91
      503
 93
      105
310
903313A344000000000000104000
  0
ACAD_PROXY_OBJECT
  5
10000013
102
{ACAD_REACTORS
330
47
102
}
330
47
100
AcDbProxyObject
 90
      499
 91
      503
 93
      113
310
904313A34304000000000000444000
  0
ACAD_PROXY_OBJECT
  5
1000000A
102
{ACAD_REACTORS
330
47
102
}
330
47
100
AcDbProxyObject
 90
      499
 91
      503
 93
      105
310
903313A354000000000000144000
  0
ACAD_PROXY_OBJECT
  5
10000014
102
{ACAD_REACTORS
330
47
102
}
330
47
100
AcDbProxyObject
 90
      499
 91
      503
 93
      113
310
904313A35304000000000000494000
  0
ACAD_PROXY_OBJECT
  5
1000000B
102
{ACAD_REACTORS
330
47
102
}
330
47
100
AcDbProxyObject
 90
      499
 91
      503
 93
      105
310
903313A364000000000000184000
  0
ACAD_PROXY_OBJECT
  5
1000000C
102
{ACAD_REACTORS
330
47
102
}
330
47
100
AcDbProxyObject
 90
      499
 91
      503
 93
      105
310
903313A384000000000000204000
  0
ACAD_PROXY_OBJECT
  5
10000015
102
{ACAD_REACTORS
330
47
102
}
330
47
100
AcDbProxyObject
 90
      499
 91
      503
 93
      113
310
904313A38304000000000000544000
  0
ACAD_PROXY_OBJECT
  5
10000020
102
{ACAD_REACTORS
330
47
102
}
330
47
100
AcDbProxyObject
 90
      499
 91
      503
 93
      113
310
90432303A310000000000000D10100
  0
ACAD_PROXY_OBJECT
  5
10000017
102
{ACAD_REACTORS
330
47
102
}
330
47
100
AcDbProxyObject
 90
      499
 91
      503
 93
      105
310
903323A310000000000000010100
  0
ACAD_PROXY_OBJECT
  5
10000021
102
{ACAD_REACTORS
330
47
102
}
330
47
100
AcDbProxyObject
 90
      499
 91
      503
 93
      113
310
90433323A310000000000001010100
  0
ACAD_PROXY_OBJECT
  5
10000018
102
{ACAD_REACTORS
330
47
102
}
330
47
100
AcDbProxyObject
 90
      499
 91
      503
 93
      105
310
903333A310000000000000210100
  0
ACAD_PROXY_OBJECT
  5
10000019
102
{ACAD_REACTORS
330
47
102
}
330
47
100
AcDbProxyObject
 90
      499
 91
      503
 93
      105
310
903343A310000000000000410100
  0
ACAD_PROXY_OBJECT
  5
10000022
102
{ACAD_REACTORS
330
47
102
}
330
47
100
AcDbProxyObject
 90
      499
 91
      503
 93
      113
310
90435303A310000000000001250100
  0
ACAD_PROXY_OBJECT
  5
1000001A
102
{ACAD_REACTORS
330
47
102
}
330
47
100
AcDbProxyObject
 90
      499
 91
      503
 93
      105
310
903353A310000000000000510100
  0
ACAD_PROXY_OBJECT
  5
1000001B
102
{ACAD_REACTORS
330
47
102
}
330
47
100
AcDbProxyObject
 90
      499
 91
      503
 93
      105
310
903363A310000000000000610100
  0
ACAD_PROXY_OBJECT
  5
1000001C
102
{ACAD_REACTORS
330
47
102
}
330
47
100
AcDbProxyObject
 90
      499
 91
      503
 93
      105
310
903383A310000000000000810100
  0
ACAD_PROXY_OBJECT
  5
2F
102
{ACAD_REACTORS
330
2A
102
}
330
2A
100
AcDbProxyObject
 90
      499
 91
      501
 93
      436
310
42CC9915DA5C99599C985B595049028333333333333E33F0000000000000F90107901411070040501600405405064090741402480A0340
1001
ACAD
1000
AcDbSavedByObjectVersion
1070
     0
  0
ACAD_PROXY_OBJECT
  5
32
102
{ACAD_REACTORS
330
2A
102
}
330
2A
100
AcDbProxyObject
 90
      499
 91
      501
 93
      388
310
4150985CDA58D07406404333333333333E33F0000000000000F90107A41107004050150841D405064090741402480A0350
1001
ACAD
1000
AcDbSavedByObjectVersion
1070
     0
  0
ACAD_PROXY_OBJECT
  5
36
102
{ACAD_REACTORS
330
2A
102
}
330
2A
100
AcDbProxyObject
 90
      499
 91
      501
 93
      428
310
42109C9A59DA1D195B90C409028333333333333E33F0000000000000F9010790141107004050150841D405064090741402480A029950
1001
ACAD
1000
AcDbSavedByObjectVersion
1070
     0
  0
ACAD_PROXY_OBJECT
  5
3A
102
{ACAD_REACTORS
330
2A
102
}
330
2A
100
AcDbProxyObject
 90
      499
 91
      501
 93
      452
310
42D0DBDB1BDC90DA185B99D95104090240C333333333333E33F0000000000000F90108901411070040501508421405064090741402480A0350
1001
ACAD
1000
AcDbSavedByObjectVersion
1070
     0
  0
ACAD_PROXY_OBJECT
  5
34
102
{ACAD_REACTORS
330
2A
102
}
330
2A
100
AcDbProxyObject
 90
      499
 91
      501
 93
      500
310
4290DBDB98D95C1D1D585B10940D028333333333333E33F0000000000000F90107902409070040501000000000018199010841D405064090740C02480A0340
1001
ACAD
1000
AcDbSavedByObjectVersion
1070
     0
  0
ACAD_PROXY_OBJECT
  5
35
102
{ACAD_REACTORS
330
2A
102
}
330
2A
100
AcDbProxyObject
 90
      499
 91
      501
 93
      412
310
40D11A5B50B409028333333333333E33F0000000000000F9010790141107004050150841D405064090741402480A02677FFFFFD0
1001
ACAD
1000
AcDbSavedByObjectVersion
1070
     0
  0
ACAD_PROXY_OBJECT
  5
3D
102
{ACAD_REACTORS
330
2A
102
}
330
2A
100
AcDbProxyObject
 90
      499
 91
      501
 93
      452
310
43115919D950DBDB1BDC93D999916409028333333333333E33F0000000000000F9010790141107004050150841D405064090741402480A0350
1001
ACAD
1000
AcDbSavedByObjectVersion
1070
     0
  0
ACAD_PROXY_OBJECT
  5
39
102
{ACAD_REACTORS
330
2A
102
}
330
2A
100
AcDbProxyObject
 90
      499
 91
      501
 93
      444
310
42D19858D95C185D1D195C9B90F409028333333333333E33F0000000000000F9010790141107004050150841D405064090741402480A0350
1001
ACAD
1000
AcDbSavedByObjectVersion
1070
     0
  0
ACAD_PROXY_OBJECT
  5
2B
102
{ACAD_REACTORS
330
2A
102
}
330
2A
100
AcDbProxyObject
 90
      499
 91
      501
 93
      380
310
41119B185D240901404333333333333E33F0000000000000F9010740A907004050150841D405064090741402480A1B50
1001
ACAD
1000
AcDbSavedByObjectVersion
1070
     0
  0
ACAD_PROXY_OBJECT
  5
2C
102
{ACAD_REACTORS
330
2A
102
}
330
2A
100
AcDbProxyObject
 90
      499
 91
      501
 93
      468
310
43519B185D15DA5D1A115919D95CD0140901404333333333333E33F0000000000000F90107409019070040501600405405064090741402480A1B50
1001
ACAD
1000
AcDbSavedByObjectVersion
1070
     0
  0
ACAD_PROXY_OBJECT
  5
2D
102
{ACAD_REACTORS
330
2A
102
}
330
2A
100
AcDbProxyObject
 90
      499
 91
      501
 93
      404
310
41D1DBDD5C985D5910240902404333333333333E33F0000000000000F9010740A9070040501641D405064090741402480A1B50
1001
ACAD
1000
AcDbSavedByObjectVersion
1070
     0
  0
ACAD_PROXY_OBJECT
  5
2E
102
{ACAD_REACTORS
330
2A
102
}
330
2A
100
AcDbProxyObject
 90
      499
 91
      501
 93
      492
310
4411DBDD5C985D5915DA5D1A115919D95CD0340902404333333333333E33F0000000000000F90107409019070040501600405405064090741402480A1B50
1001
ACAD
1000
AcDbSavedByObjectVersion
1070
     0
  0
ACAD_PROXY_OBJECT
  5
31
102
{ACAD_REACTORS
330
2A
102
}
330
2A
100
AcDbProxyObject
 90
      499
 91
      501
 93
      476
310
41921A5919195B90640502408333333333333E33F0000000000000F901079024090700405020000000000001110200405405064090740C02480A0340
1001
ACAD
1000
AcDbSavedByObjectVersion
1070
     0
  0
ACAD_PROXY_OBJECT
  5
3B
102
{ACAD_REACTORS
330
2A
102
}
330
2A
100
AcDbProxyObject
 90
      499
 91
      501
 93
      428
310
42529A5D1D195C93D999914409028333333333333E33F0000000000000F9010790141107004050150A41D405064090741402480A0350
1001
ACAD
1000
AcDbSavedByObjectVersion
1070
     0
  0
ACAD_PROXY_OBJECT
  5
38
102
{ACAD_REACTORS
330
2A
102
}
330
2A
100
AcDbProxyObject
 90
      499
 91
      501
 93
      444
310
42D31A5B995C185D1D195C9B90E409028333333333333E33F0000000000000F9010790141107004050750841D405064090741402483A0350
1001
ACAD
1000
AcDbSavedByObjectVersion
1070
     0
  0
ACAD_PROXY_OBJECT
  5
3C
102
{ACAD_REACTORS
330
2A
102
}
330
2A
100
AcDbProxyObject
 90
      499
 91
      501
 93
      444
310
42D3DD995C9A185B99D3D999915409028333333333333E33F0000000000000F9010790141107004050150941D405064090741402480A0350
1001
ACAD
1000
AcDbSavedByObjectVersion
1070
     0
  0
ACAD_PROXY_OBJECT
  5
33
102
{ACAD_REACTORS
330
2A
102
}
330
2A
100
AcDbProxyObject
 90
      499
 91
      501
 93
      428
310
425499585B1A5CDD1A58D08409038333333333333E33F0000000000000F9010740A907004050150800405405064090740C02480A1B40
1001
ACAD
1000
AcDbSavedByObjectVersion
1070
     0
  0
ACAD_PROXY_OBJECT
  5
42
102
{ACAD_REACTORS
330
2A
102
}
330
2A
100
AcDbProxyObject
 90
      499
 91
      501
 93
      420
310
4194DA1859195911B40902404333333333333E33F0000000000000F9010740A41107004050150800405405064090840C02480A0B40
1001
ACAD
1000
AcDbSavedByObjectVersion
1070
     0
  0
ACAD_PROXY_OBJECT
  5
41
102
{ACAD_REACTORS
330
2A
102
}
330
2A
100
AcDbProxyObject
 90
      499
 91
      501
 93
      516
310
4454DA18591959081DDA5D1A08195919D95CD1A40902404333333333333E33F0000000000000F901074090142907004050250800405405064090740C02480A0B40
1001
ACAD
1000
AcDbSavedByObjectVersion
1070
     0
  0
ACAD_PROXY_OBJECT
  5
3E
102
{ACAD_REACTORS
330
2A
102
}
330
2A
100
AcDbProxyObject
 90
      499
 91
      501
 93
      532
310
4394DA1859195CC81BD98811DC985E5174090240C333333333333E33F0000000000000F901079024090741D01000000000000111010841D405064090740C02480A0340
1001
ACAD
1000
AcDbSavedByObjectVersion
1070
     0
  0
ACAD_PROXY_OBJECT
  5
3F
102
{ACAD_REACTORS
330
2A
102
}
330
2A
100
AcDbProxyObject
 90
      499
 91
      501
 93
      476
310
41D4DAD95D18DA1E51840502408333333333333E33F0000000000000F901079024090741D01000000000000111010B41D405064090741802480A0340
1001
ACAD
1000
AcDbSavedByObjectVersion
1070
     0
  0
ACAD_PROXY_OBJECT
  5
37
102
{ACAD_REACTORS
330
2A
102
}
330
2A
100
AcDbProxyObject
 90
      499
 91
      501
 93
      412
310
41D51A1A58DAD95B90D409028333333333333E33F0000000000000F9010790141107004050150C41D405064090741402480A0350
1001
ACAD
1000
AcDbSavedByObjectVersion
1070
     0
  0
ACAD_PROXY_OBJECT
  5
30
102
{ACAD_REACTORS
330
2A
102
}
330
2A
100
AcDbProxyObject
 90
      499
 91
      501
 93
      420
310
4255DA5C99599C985B595059028333333333333E33F0000000000000F90107901411070040501600405405064090740C02480A0340
1001
ACAD
1000
AcDbSavedByObjectVersion
1070
     0
  0
ACAD_PROXY_OBJECT
  5
40
102
{ACAD_REACTORS
330
2A
102
}
330
2A
100
AcDbProxyObject
 90
      499
 91
      501
 93
      404
310
41560B54985E51940902404000000000000E03F0000000000000F9010740501907004050150841D405064090740C02480A1B40
1001
ACAD
1000
AcDbSavedByObjectVersion
1070
     0
  0
XRECORD
  5
1000024B
102
{ACAD_REACTORS
330
10000241
102
}
330
10000241
100
AcDbXrecord
340
0
  0
XRECORD
  5
1000024A
102
{ACAD_REACTORS
330
10000241
102
}
330
10000241
100
AcDbXrecord
 90
        0
  0
XRECORD
  5
10000261
102
{ACAD_REACTORS
330
10000241
102
}
330
10000241
100
AcDbXrecord
1000
DSTYLE
1002
{
1070
   340
340
11
1002
}
  0
XRECORD
  5
1000024C
102
{ACAD_REACTORS
330
10000241
102
}
330
10000241
100
AcDbXrecord
  1
{78387975-7679-7770-3875-e133b3b13078}
  0
XRECORD
  5
10000244
102
{ACAD_REACTORS
330
10000241
102
}
330
10000241
100
AcDbXrecord
  1

  0
XRECORD
  5
10000249
102
{ACAD_REACTORS
330
10000241
102
}
330
10000241
100
AcDbXrecord
 90
        4
  0
XRECORD
  5
10000246
102
{ACAD_REACTORS
330
10000241
102
}
330
10000241
100
AcDbXrecord
340
1A
  0
XRECORD
  5
10000248
102
{ACAD_REACTORS
330
10000241
102
}
330
10000241
100
AcDbXrecord
 90
    10781
  0
XRECORD
  5
10000247
102
{ACAD_REACTORS
330
10000241
102
}
330
10000241
100
AcDbXrecord
340
19
  0
XRECORD
  5
1000024E
102
{ACAD_REACTORS
330
10000241
102
}
330
10000241
100
AcDbXrecord
 40
0.0
  0
XRECORD
  5
10000251
102
{ACAD_REACTORS
330
10000241
102
}
330
10000241
100
AcDbXrecord
340
0
  0
XRECORD
  5
10000257
102
{ACAD_REACTORS
330
10000241
102
}
330
10000241
100
AcDbXrecord
 10
0.0
 20
0.0
 30
0.0
  0
XRECORD
  5
10000253
102
{ACAD_REACTORS
330
10000241
102
}
330
10000241
100
AcDbXrecord
 10
0.0
 20
0.0
 30
0.0
  0
XRECORD
  5
10000256
102
{ACAD_REACTORS
330
10000241
102
}
330
10000241
100
AcDbXrecord
 10
0.0
 20
0.0
 30
0.0
  0
XRECORD
  5
10000254
102
{ACAD_REACTORS
330
10000241
102
}
330
10000241
100
AcDbXrecord
 10
0.0
 20
0.0
 30
0.0
  0
XRECORD
  5
10000255
102
{ACAD_REACTORS
330
10000241
102
}
330
10000241
100
AcDbXrecord
 10
0.0
 20
0.0
 30
0.0
  0
XRECORD
  5
10000252
102
{ACAD_REACTORS
330
10000241
102
}
330
10000241
100
AcDbXrecord
 10
0.0
 20
0.0
 30
0.0
  0
XRECORD
  5
1000024F
102
{ACAD_REACTORS
330
10000241
102
}
330
10000241
100
AcDbXrecord
340
0
  0
XRECORD
  5
10000250
102
{ACAD_REACTORS
330
10000241
102
}
330
10000241
100
AcDbXrecord
 70
     0
  0
XRECORD
  5
10000245
102
{ACAD_REACTORS
330
10000241
102
}
330
10000241
100
AcDbXrecord
  1

  0
XRECORD
  5
10000242
102
{ACAD_REACTORS
330
10000241
102
}
330
10000241
100
AcDbXrecord
 90
        1
  0
XRECORD
  5
10000243
102
{ACAD_REACTORS
330
10000241
102
}
330
10000241
100
AcDbXrecord
 90
       70
  0
XRECORD
  5
1000025A
102
{ACAD_REACTORS
330
10000241
102
}
330
10000241
100
AcDbXrecord
340
0
  0
XRECORD
  5
10000260
102
{ACAD_REACTORS
330
10000241
102
}
330
10000241
100
AcDbXrecord
 10
0.0
 20
0.0
 30
0.0
  0
XRECORD
  5
1000025C
102
{ACAD_REACTORS
330
10000241
102
}
330
10000241
100
AcDbXrecord
 10
0.0
 20
0.0
 30
0.0
  0
XRECORD
  5
1000025F
102
{ACAD_REACTORS
330
10000241
102
}
330
10000241
100
AcDbXrecord
 10
0.0
 20
0.0
 30
0.0
  0
XRECORD
  5
1000025D
102
{ACAD_REACTORS
330
10000241
102
}
330
10000241
100
AcDbXrecord
 10
0.0
 20
0.0
 30
0.0
  0
XRECORD
  5
1000025E
102
{ACAD_REACTORS
330
10000241
102
}
330
10000241
100
AcDbXrecord
 10
0.0
 20
0.0
 30
0.0
  0
XRECORD
  5
1000025B
102
{ACAD_REACTORS
330
10000241
102
}
330
10000241
100
AcDbXrecord
 10
0.0
 20
0.0
 30
0.0
  0
XRECORD
  5
10000258
102
{ACAD_REACTORS
330
10000241
102
}
330
10000241
100
AcDbXrecord
340
0
  0
XRECORD
  5
10000259
102
{ACAD_REACTORS
330
10000241
102
}
330
10000241
100
AcDbXrecord
 70
     0
  0
XRECORD
  5
1000024D
102
{ACAD_REACTORS
330
10000241
102
}
330
10000241
100
AcDbXrecord
  1
{FAEB1C32-E019-11D5-929B-00C0DF256EC4}
  0
DICTIONARYVAR
  5
10000270
102
{ACAD_REACTORS
330
10000262
102
}
330
10000262
100
DictionaryVariables
280
     0
  1
1:1
  0
DICTIONARYVAR
  5
10000269
102
{ACAD_REACTORS
330
10000262
102
}
330
10000262
100
DictionaryVariables
280
     0
  1
3.500000
  0
DICTIONARYVAR
  5
1000026A
102
{ACAD_REACTORS
330
10000262
102
}
330
10000262
100
DictionaryVariables
280
     0
  1
acadiso.lin
  0
DICTIONARYVAR
  5
10000264
102
{ACAD_REACTORS
330
10000262
102
}
330
10000262
100
DictionaryVariables
280
     0
  1
Standard
  0
DICTIONARYVAR
  5
10000263
102
{ACAD_REACTORS
330
10000262
102
}
330
10000262
100
DictionaryVariables
280
     0
  1
Standard
  0
DICTIONARYVAR
  5
1000026B
102
{ACAD_REACTORS
330
10000262
102
}
330
10000262
100
DictionaryVariables
280
     0
  1
2
  0
DICTIONARYVAR
  5
1000026C
102
{ACAD_REACTORS
330
10000262
102
}
330
10000262
100
DictionaryVariables
280
     0
  1
1
  0
DICTIONARYVAR
  5
10000271
102
{ACAD_REACTORS
330
10000262
102
}
330
10000262
100
DictionaryVariables
280
     0
  1
1
  0
DICTIONARYVAR
  5
10000266
102
{ACAD_REACTORS
330
10000262
102
}
330
10000262
100
DictionaryVariables
280
     0
  1
80.000000
  0
DICTIONARYVAR
  5
10000265
102
{ACAD_REACTORS
330
10000262
102
}
330
10000262
100
DictionaryVariables
280
     0
  1
5.000000
  0
XRECORD
  5
10000003
102
{ACAD_REACTORS
330
10000001
102
}
330
10000001
100
AcDbXrecord
 70
     4
  0
XRECORD
  5
10000002
102
{ACAD_REACTORS
330
10000001
102
}
330
10000001
100
AcDbXrecord
1040
89.0
  0
ACAD_PROXY_OBJECT
  5
10000005
102
{ACAD_REACTORS
330
10000001
102
}
330
10000001
100
AcDbProxyObject
 90
      499
 91
      509
 93
       34
310
40C8804040
  0
DICTIONARY
  5
10000274
330
45
100
AcDbDictionary
280
     1
  3
ACAD_XREC_ROUNDTRIP
360
10000275
  0
DICTIONARY
  5
10000272
330
44
100
AcDbDictionary
280
     1
  3
ACAD_XREC_ROUNDTRIP
360
10000273
  0
DICTIONARY
  5
10000276
330
46
100
AcDbDictionary
280
     1
  3
ACAD_XREC_ROUNDTRIP
360
10000277
  0
XRECORD
  5
10000275
102
{ACAD_REACTORS
330
10000274
102
}
330
10000274
100
AcDbXrecord
102
MATERIAL
148
0.0
149
0.0
149
0.0
 93
        0
 94
      127
282
     0
 72
     1
 77
     1
171
     1
175
     1
179
     1
273
     0
  0
XRECORD
  5
10000273
102
{ACAD_REACTORS
330
10000272
102
}
330
10000272
100
AcDbXrecord
102
MATERIAL
148
0.0
149
0.0
149
0.0
 93
        0
 94
      127
282
     0
 72
     1
 77
     1
171
     1
175
     1
179
     1
273
     0
  0
XRECORD
  5
10000277
102
{ACAD_REACTORS
330
10000276
102
}
330
10000276
100
AcDbXrecord
102
MATERIAL
148
0.0
149
0.0
149
0.0
 93
        0
 94
      127
282
     0
 72
     1
 77
     1
171
     1
175
     1
179
     1
273
     0
  0
ENDSEC
  0
EOF
