  0
SECTION
  2
HEADER
  9
$ACADVER
  1
AC1014
  9
$ACADMAINTVER
 70
     9
  9
$DWGCODEPAGE
  3
ANSI_1252
  9
$INSBASE
 10
0.0
 20
0.0
 30
0.0
  9
$EXTMIN
 10
1.000000000000000E+20
 20
1.000000000000000E+20
 30
1.000000000000000E+20
  9
$EXTMAX
 10
-1.000000000000000E+20
 20
-1.000000000000000E+20
 30
-1.000000000000000E+20
  9
$LIMMIN
 10
0.0
 20
0.0
  9
$LIMMAX
 10
420.0
 20
297.0
  9
$ORTHOMODE
 70
     0
  9
$REGENMODE
 70
     1
  9
$FILLMODE
 70
     1
  9
$QTEXTMODE
 70
     0
  9
$MIRRTEXT
 70
     1
  9
$DRAGMODE
 70
     2
  9
$LTSCALE
 40
1.0
  9
$OSMODE
 70
    37
  9
$ATTMODE
 70
     1
  9
$TEXTSIZE
 40
2.5
  9
$TRACEWID
 40
1.0
  9
$TEXTSTYLE
  7
STANDARD
  9
$CLAYER
  8
0
  9
$CELTYPE
  6
BYLAYER
  9
$CECOLOR
 62
   256
  9
$CELTSCALE
 40
1.0
  9
$DELOBJ
 70
     1
  9
$DISPSILH
 70
     0
  9
$DIMSCALE
 40
1.0
  9
$DIMASZ
 40
2.5
  9
$DIMEXO
 40
0.625
  9
$DIMDLI
 40
3.75
  9
$DIMRND
 40
0.0
  9
$DIMDLE
 40
0.0
  9
$DIMEXE
 40
1.25
  9
$DIMTP
 40
0.0
  9
$DIMTM
 40
0.0
  9
$DIMTXT
 40
2.5
  9
$DIMCEN
 40
2.5
  9
$DIMTSZ
 40
0.0
  9
$DIMTOL
 70
     0
  9
$DIMLIM
 70
     0
  9
$DIMTIH
 70
     0
  9
$DIMTOH
 70
     0
  9
$DIMSE1
 70
     0
  9
$DIMSE2
 70
     0
  9
$DIMTAD
 70
     1
  9
$DIMZIN
 70
     8
  9
$DIMBLK
  1

  9
$DIMASO
 70
     1
  9
$DIMSHO
 70
     1
  9
$DIMPOST
  1

  9
$DIMAPOST
  1

  9
$DIMALT
 70
     0
  9
$DIMALTD
 70
     3
  9
$DIMALTF
 40
0.03937007874016
  9
$DIMLFAC
 40
1.0
  9
$DIMTOFL
 70
     1
  9
$DIMTVP
 40
0.0
  9
$DIMTIX
 70
     0
  9
$DIMSOXD
 70
     0
  9
$DIMSAH
 70
     0
  9
$DIMBLK1
  1

  9
$DIMBLK2
  1

  9
$DIMSTYLE
  2
ISO-25
  9
$DIMCLRD
 70
     0
  9
$DIMCLRE
 70
     0
  9
$DIMCLRT
 70
     0
  9
$DIMTFAC
 40
1.0
  9
$DIMGAP
 40
0.625
  9
$DIMJUST
 70
     0
  9
$DIMSD1
 70
     0
  9
$DIMSD2
 70
     0
  9
$DIMTOLJ
 70
     0
  9
$DIMTZIN
 70
     8
  9
$DIMALTZ
 70
     0
  9
$DIMALTTZ
 70
     0
  9
$DIMFIT
 70
     3
  9
$DIMUPT
 70
     0
  9
$DIMUNIT
 70
     2
  9
$DIMDEC
 70
     2
  9
$DIMTDEC
 70
     2
  9
$DIMALTU
 70
     2
  9
$DIMALTTD
 70
     3
  9
$DIMTXSTY
  7
STANDARD
  9
$DIMAUNIT
 70
     0
  9
$LUNITS
 70
     2
  9
$LUPREC
 70
     4
  9
$SKETCHINC
 40
1.0
  9
$FILLETRAD
 40
0.0
  9
$AUNITS
 70
     0
  9
$AUPREC
 70
     0
  9
$MENU
  1
.
  9
$ELEVATION
 40
0.0
  9
$PELEVATION
 40
0.0
  9
$THICKNESS
 40
0.0
  9
$LIMCHECK
 70
     0
  9
$CHAMFERA
 40
0.0
  9
$CHAMFERB
 40
0.0
  9
$CHAMFERC
 40
0.0
  9
$CHAMFERD
 40
0.0
  9
$SKPOLY
 70
     0
  9
$TDCREATE
 40
2461032.05639684
  9
$TDUPDATE
 40
2461032.056396887
  9
$TDINDWG
 40
0.0000000116
  9
$TDUSRTIMER
 40
0.0000000116
  9
$USRTIMER
 70
     1
  9
$ANGBASE
 50
0.0
  9
$ANGDIR
 70
     0
  9
$PDMODE
 70
     0
  9
$PDSIZE
 40
0.0
  9
$PLINEWID
 40
0.0
  9
$COORDS
 70
     1
  9
$SPLFRAME
 70
     0
  9
$SPLINETYPE
 70
     6
  9
$SPLINESEGS
 70
     8
  9
$ATTDIA
 70
     0
  9
$ATTREQ
 70
     1
  9
$HANDLING
 70
     1
  9
$HANDSEED
  5
10000229
  9
$SURFTAB1
 70
     6
  9
$SURFTAB2
 70
     6
  9
$SURFTYPE
 70
     6
  9
$SURFU
 70
     6
  9
$SURFV
 70
     6
  9
$UCSNAME
  2

  9
$UCSORG
 10
0.0
 20
0.0
 30
0.0
  9
$UCSXDIR
 10
1.0
 20
0.0
 30
0.0
  9
$UCSYDIR
 10
0.0
 20
1.0
 30
0.0
  9
$PUCSNAME
  2

  9
$PUCSORG
 10
0.0
 20
0.0
 30
0.0
  9
$PUCSXDIR
 10
1.0
 20
0.0
 30
0.0
  9
$PUCSYDIR
 10
0.0
 20
1.0
 30
0.0
  9
$USERI1
 70
     0
  9
$USERI2
 70
     0
  9
$USERI3
 70
     0
  9
$USERI4
 70
     0
  9
$USERI5
 70
     0
  9
$USERR1
 40
0.0
  9
$USERR2
 40
0.0
  9
$USERR3
 40
0.0
  9
$USERR4
 40
0.0
  9
$USERR5
 40
0.0
  9
$WORLDVIEW
 70
     1
  9
$SHADEDGE
 70
     3
  9
$SHADEDIF
 70
    70
  9
$TILEMODE
 70
     1
  9
$MAXACTVP
 70
    64
  9
$PINSBASE
 10
0.0
 20
0.0
 30
0.0
  9
$PLIMCHECK
 70
     0
  9
$PEXTMIN
 10
1.000000000000000E+20
 20
1.000000000000000E+20
 30
1.000000000000000E+20
  9
$PEXTMAX
 10
-1.000000000000000E+20
 20
-1.000000000000000E+20
 30
-1.000000000000000E+20
  9
$PLIMMIN
 10
0.0
 20
0.0
  9
$PLIMMAX
 10
420.0
 20
297.0
  9
$UNITMODE
 70
     0
  9
$VISRETAIN
 70
     1
  9
$PLINEGEN
 70
     0
  9
$PSLTSCALE
 70
     1
  9
$TREEDEPTH
 70
  3020
  9
$PICKSTYLE
 70
     1
  9
$CMLSTYLE
  2
STANDARD
  9
$CMLJUST
 70
     0
  9
$CMLSCALE
 40
20.0
  9
$PROXYGRAPHICS
 70
     1
  9
$MEASUREMENT
 70
     1
  0
ENDSEC
  0
SECTION
  2
CLASSES
  0
CLASS
  1
ACDBDICTIONARYWDFLT
  2
AcDbDictionaryWithDefault
  3
ObjectDBX Classes
 90
        0
280
     0
281
     0
  0
CLASS
  1
VISUALSTYLE
  2
AcDbVisualStyle
  3
ObjectDBX Classes
 90
     4095
280
     0
281
     0
  0
CLASS
  1
MATERIAL
  2
AcDbMaterial
  3
ObjectDBX Classes
 90
     1153
280
     0
281
     0
  0
CLASS
  1
SCALE
  2
AcDbScale
  3
ObjectDBX Classes
 90
     1153
280
     0
281
     0
  0
CLASS
  1
TABLESTYLE
  2
AcDbTableStyle
  3
ObjectDBX Classes
 90
     4095
280
     0
281
     0
  0
CLASS
  1
MLEADERSTYLE
  2
AcDbMLeaderStyle
  3
ACDB_MLEADERSTYLE_CLASS
 90
     4095
280
     0
281
     0
  0
CLASS
  1
SUN
  2
AcDbSun
  3
SCENEOE
 90
     1153
280
     0
281
     0
  0
CLASS
  1
SORTENTSTABLE
  2
AcDbSortentsTable
  3
ObjectDBX Classes
 90
        0
280
     0
281
     0
  0
CLASS
  1
DICTIONARYVAR
  2
AcDbDictionaryVar
  3
ObjectDBX Classes
 90
        0
280
     0
281
     0
  0
CLASS
  1
XRECORD
  2
AcDbXrecord
  3
ObjectDBX Classes
 90
        0
280
     0
281
     0
  0
CLASS
  1
LWPOLYLINE
  2
AcDbPolyline
  3
ObjectDBX Classes
 90
        0
280
     0
281
     1
  0
CLASS
  1
HATCH
  2
AcDbHatch
  3
ObjectDBX Classes
 90
        0
280
     0
281
     1
  0
CLASS
  1
ACDBPLACEHOLDER
  2
AcDbPlaceHolder
  3
ObjectDBX Classes
 90
        0
280
     0
281
     0
  0
CLASS
  1
LAYOUT
  2
AcDbLayout
  3
ObjectDBX Classes
 90
        0
280
     0
281
     0
  0
ENDSEC
  0
SECTION
  2
TABLES
  0
TABLE
  2
VPORT
  5
8
102
{ACAD_XDICTIONARY
360
1000021E
102
}
330
0
100
AcDbSymbolTable
 70
     1
  0
VPORT
  5
29
330
8
100
AcDbSymbolTableRecord
100
AcDbViewportTableRecord
  2
*ACTIVE
 70
     0
 10
0.0
 20
0.0
 11
1.0
 21
1.0
 12
344.1869158878504
 22
148.5
 13
0.0
 23
0.0
 14
10.0
 24
10.0
 15
10.0
 25
10.0
 16
0.0
 26
0.0
 36
1.0
 17
0.0
 27
0.0
 37
0.0
 40
297.0
 41
1.972972972850329
 42
50.0
 43
0.0
 44
0.0
 50
0.0
 51
0.0
 71
     0
 72
   100
 73
     1
 74
     3
 75
     0
 76
     0
 77
     0
 78
     0
  0
ENDTAB
  0
TABLE
  2
LTYPE
  5
5
330
0
100
AcDbSymbolTable
 70
     7
  0
LTYPE
  5
14
330
5
100
AcDbSymbolTableRecord
100
AcDbLinetypeTableRecord
  2
BYBLOCK
 70
     0
  3

 72
    65
 73
     0
 40
0.0
  0
LTYPE
  5
15
330
5
100
AcDbSymbolTableRecord
100
AcDbLinetypeTableRecord
  2
BYLAYER
 70
     0
  3

 72
    65
 73
     0
 40
0.0
  0
LTYPE
  5
16
330
5
100
AcDbSymbolTableRecord
100
AcDbLinetypeTableRecord
  2
CONTINUOUS
 70
     0
  3
Solid line
 72
    65
 73
     0
 40
0.0
  0
LTYPE
  5
10000024
330
5
100
AcDbSymbolTableRecord
100
AcDbLinetypeTableRecord
  2
ONS_PHANTOM
 70
     0
  3
Onshape Phantom line ______ __ __ ______
 72
    65
 73
     6
 40
0.4999999999999999
 49
0.25
 74
     0
 49
-0.05
 74
     0
 49
0.05
 74
     0
 49
-0.05
 74
     0
 49
0.05
 74
     0
 49
-0.05
 74
     0
  0
LTYPE
  5
10000025
330
5
100
AcDbSymbolTableRecord
100
AcDbLinetypeTableRecord
  2
CENTER
 70
     0
  3
Center line ____ _ ____ _ ____ _
 72
    65
 73
     4
 40
0.7874015748031495
 49
0.4921259842519685
 74
     0
 49
-0.0984251968503937
 74
     0
 49
0.0984251968503937
 74
     0
 49
-0.0984251968503937
 74
     0
  0
LTYPE
  5
10000026
330
5
100
AcDbSymbolTableRecord
100
AcDbLinetypeTableRecord
  2
DASHED
 70
     0
  3
Dashed line __ __ __ __ __
 72
    65
 73
     2
 40
0.75
 49
0.5
 74
     0
 49
-0.25
 74
     0
  0
LTYPE
  5
10000027
330
5
100
AcDbSymbolTableRecord
100
AcDbLinetypeTableRecord
  2
ONS_DASHDOT
 70
     0
  3
Onshape Dashed with Dot _ . ____ . ____
 72
    65
 73
     4
 40
0.71
 49
0.5
 74
     0
 49
-0.1
 74
     0
 49
0.01
 74
     0
 49
-0.1
 74
     0
  0
LTYPE
  5
10000028
330
5
100
AcDbSymbolTableRecord
100
AcDbLinetypeTableRecord
  2
ONS_DOTTED
 70
     0
  3
Onshape Dotted line . . . . . . .
 72
    65
 73
     2
 40
0.11
 49
0.01
 74
     0
 49
-0.1
 74
     0
  0
LTYPE
  5
10000029
330
5
100
AcDbSymbolTableRecord
100
AcDbLinetypeTableRecord
  2
HIDDEN
 70
     0
  3
Hidden line ____ ____ ____ ____ 
 72
    65
 73
     2
 40
0.15
 49
0.1
 74
     0
 49
-0.05
 74
     0
  0
ENDTAB
  0
TABLE
  2
LAYER
  5
2
330
0
100
AcDbSymbolTable
 70
    48
  0
LAYER
  5
10
330
2
100
AcDbSymbolTableRecord
100
AcDbLayerTableRecord
  2
0
 70
     0
 62
     7
  6
CONTINUOUS
  0
LAYER
  5
1000002A
330
2
100
AcDbSymbolTableRecord
100
AcDbLayerTableRecord
  2
SECTION_CUTTING_LINE
 70
     0
 62
     7
  6
ONS_DASHDOT
  0
LAYER
  5
1000002B
330
2
100
AcDbSymbolTableRecord
100
AcDbLayerTableRecord
  2
DETAIL_VIEW_BORDER
 70
     0
 62
     7
  6
CONTINUOUS
  0
LAYER
  5
1000002C
330
2
100
AcDbSymbolTableRecord
100
AcDbLayerTableRecord
  2
DETAIL_VIEW_PARENT_BORDER
 70
     0
 62
     7
  6
ONS_PHANTOM
  0
LAYER
  5
1000002D
330
2
100
AcDbSymbolTableRecord
100
AcDbLayerTableRecord
  2
TEXT
 70
     0
 62
     7
  6
CONTINUOUS
  0
LAYER
  5
1000002E
330
2
100
AcDbSymbolTableRecord
100
AcDbLayerTableRecord
  2
SKETCHED_GEOMETRY
 70
     0
 62
    -7
  6
CONTINUOUS
  0
LAYER
  5
1000002F
330
2
100
AcDbSymbolTableRecord
100
AcDbLayerTableRecord
  2
VIRTUAL_SHARPS
 70
     0
 62
    -7
  6
CONTINUOUS
  0
LAYER
  5
10000030
330
2
100
AcDbSymbolTableRecord
100
AcDbLayerTableRecord
  2
CENTERLINES
 70
     0
 62
    -7
  6
CENTER
  0
LAYER
  5
10000031
330
2
100
AcDbSymbolTableRecord
100
AcDbLayerTableRecord
  2
CENTERMARKS
 70
     0
 62
    -7
  6
CONTINUOUS
  0
LAYER
  5
10000032
330
2
100
AcDbSymbolTableRecord
100
AcDbLayerTableRecord
  2
TABLES
 70
     0
 62
     7
  6
CONTINUOUS
  0
LAYER
  5
10000033
330
2
100
AcDbSymbolTableRecord
100
AcDbLayerTableRecord
  2
IMAGES
 70
     0
 62
    -7
  6
CONTINUOUS
  0
LAYER
  5
10000034
330
2
100
AcDbSymbolTableRecord
100
AcDbLayerTableRecord
  2
ANNOTATION_LINES
 70
     0
 62
    -7
  6
CONTINUOUS
  0
LAYER
  5
10000035
330
2
100
AcDbSymbolTableRecord
100
AcDbLayerTableRecord
  2
ANNOTATION_TEXT
 70
     0
 62
    -7
  6
CONTINUOUS
  0
LAYER
  5
10000036
330
2
100
AcDbSymbolTableRecord
100
AcDbLayerTableRecord
  2
SIDE_THREAD_SYMBOLS
 70
     0
 62
     7
  6
CONTINUOUS
  0
LAYER
  5
10000037
330
2
100
AcDbSymbolTableRecord
100
AcDbLayerTableRecord
  2
SIDE_THREAD_SYMBOLS_HIDDEN
 70
     0
 62
    -7
  6
HIDDEN
  0
LAYER
  5
10000038
330
2
100
AcDbSymbolTableRecord
100
AcDbLayerTableRecord
  2
SURFACE_THREAD_SYMBOLS
 70
     0
 62
     7
  6
CONTINUOUS
  0
LAYER
  5
10000039
330
2
100
AcDbSymbolTableRecord
100
AcDbLayerTableRecord
  2
SURFACE_THREAD_SYMBOLS_ON_
 70
     0
 62
     7
  6
CONTINUOUS
  0
LAYER
  5
1000003A
330
2
100
AcDbSymbolTableRecord
100
AcDbLayerTableRecord
  2
SURFACE_THREAD_SYMBOLS_HID
 70
     0
 62
    -7
  6
HIDDEN
  0
LAYER
  5
1000003B
330
2
100
AcDbSymbolTableRecord
100
AcDbLayerTableRecord
  2
BLIND_THREAD_SYMBOLS
 70
     0
 62
     7
  6
CONTINUOUS
  0
LAYER
  5
1000003C
330
2
100
AcDbSymbolTableRecord
100
AcDbLayerTableRecord
  2
BLIND_THREAD_SYMBOLS_HIDDE
 70
     0
 62
    -7
  6
HIDDEN
  0
LAYER
  5
1000003D
330
2
100
AcDbSymbolTableRecord
100
AcDbLayerTableRecord
  2
EXPLODE_LINES
 70
     0
 62
     7
  6
ONS_PHANTOM
  0
LAYER
  5
1000003E
330
2
100
AcDbSymbolTableRecord
100
AcDbLayerTableRecord
  2
HIDDEN_EXPLODE_LINES
 70
     0
 62
    -7
  6
ONS_PHANTOM
  0
LAYER
  5
1000003F
330
2
100
AcDbSymbolTableRecord
100
AcDbLayerTableRecord
  2
BREAK_LINES
 70
     0
 62
    -7
  6
CONTINUOUS
  0
LAYER
  5
10000040
330
2
100
AcDbSymbolTableRecord
100
AcDbLayerTableRecord
  2
SHEETMETAL_BEND_LINES_UP
 70
     0
 62
     7
  6
CENTER
  0
LAYER
  5
10000041
330
2
100
AcDbSymbolTableRecord
100
AcDbLayerTableRecord
  2
SHEETMETAL_BEND_LINES_DOWN
 70
     0
 62
     7
  6
CENTER
  0
LAYER
  5
10000042
330
2
100
AcDbSymbolTableRecord
100
AcDbLayerTableRecord
  2
SHEETMETAL_BEND_TANGENT_LI
 70
     0
 62
     7
  6
CONTINUOUS
  0
LAYER
  5
10000043
330
2
100
AcDbSymbolTableRecord
100
AcDbLayerTableRecord
  2
SHEETMETAL_CUT_LINES
 70
     0
 62
     7
  6
CONTINUOUS
  0
LAYER
  5
10000044
330
2
100
AcDbSymbolTableRecord
100
AcDbLayerTableRecord
  2
SHEETMETAL_CBORE_CSINK_UP
 70
     0
 62
     7
  6
CONTINUOUS
  0
LAYER
  5
10000045
330
2
100
AcDbSymbolTableRecord
100
AcDbLayerTableRecord
  2
SHEETMETAL_CBORE_CSINK_DOW
 70
     0
 62
     7
  6
CONTINUOUS
  0
LAYER
  5
10000046
330
2
100
AcDbSymbolTableRecord
100
AcDbLayerTableRecord
  2
SHEETMETAL_CBORE_CSINK_UP_
 70
     0
 62
    -7
  6
HIDDEN
  0
LAYER
  5
10000047
330
2
100
AcDbSymbolTableRecord
100
AcDbLayerTableRecord
  2
SHEETMETAL_CBORE_CSINK_DO0
 70
     0
 62
    -7
  6
HIDDEN
  0
LAYER
  5
10000048
330
2
100
AcDbSymbolTableRecord
100
AcDbLayerTableRecord
  2
SHEETMETAL_FORM_TEAR
 70
     0
 62
     7
  6
CONTINUOUS
  0
LAYER
  5
10000049
330
2
100
AcDbSymbolTableRecord
100
AcDbLayerTableRecord
  2
SHEETMETAL_FORM_UP
 70
     0
 62
     7
  6
CENTER
  0
LAYER
  5
1000004A
330
2
100
AcDbSymbolTableRecord
100
AcDbLayerTableRecord
  2
SHEETMETAL_FORM_DOWN
 70
     0
 62
     7
  6
CENTER
  0
LAYER
  5
1000004B
330
2
100
AcDbSymbolTableRecord
100
AcDbLayerTableRecord
  2
SHEETMETAL_FORM_CENTERMARK
 70
     0
 62
     7
  6
CENTER
  0
LAYER
  5
1000004C
330
2
100
AcDbSymbolTableRecord
100
AcDbLayerTableRecord
  2
REGION_ASSOC_POINTS
 70
     0
 62
    -7
  6
CONTINUOUS
  0
LAYER
  5
1000004D
330
2
100
AcDbSymbolTableRecord
100
AcDbLayerTableRecord
  2
PATTERN_CENTERLINES
 70
     1
 62
    -7
  6
CENTER
  0
LAYER
  5
1000004E
330
2
100
AcDbSymbolTableRecord
100
AcDbLayerTableRecord
  2
HIDDEN
 70
     0
 62
    -7
  6
HIDDEN
  0
LAYER
  5
1000004F
330
2
100
AcDbSymbolTableRecord
100
AcDbLayerTableRecord
  2
VISIBLE
 70
     0
 62
     7
  6
CONTINUOUS
  0
LAYER
  5
10000050
330
2
100
AcDbSymbolTableRecord
100
AcDbLayerTableRecord
  2
MODELSKETCH_VISIBLE
 70
     0
 62
     7
  6
CONTINUOUS
  0
LAYER
  5
10000051
330
2
100
AcDbSymbolTableRecord
100
AcDbLayerTableRecord
  2
MODELSKETCH_POINT
 70
     0
 62
     7
  6
CONTINUOUS
  0
LAYER
  5
10000052
330
2
100
AcDbSymbolTableRecord
100
AcDbLayerTableRecord
  2
MODELSKETCH_CONSTRUCTION
 70
     0
 62
    -7
  6
CENTER
  0
LAYER
  5
10000053
330
2
100
AcDbSymbolTableRecord
100
AcDbLayerTableRecord
  2
HIDDEN_BASE_VIEW
 70
     0
 62
     7
  6
CONTINUOUS
  0
LAYER
  5
10000054
330
2
100
AcDbSymbolTableRecord
100
AcDbLayerTableRecord
  2
TANGENT_LINES
 70
     0
 62
    -7
  6
CONTINUOUS
  0
LAYER
  5
10000055
330
2
100
AcDbSymbolTableRecord
100
AcDbLayerTableRecord
  2
TANGENT_HIDDEN
 70
     0
 62
    -7
  6
HIDDEN
  0
LAYER
  5
10000056
330
2
100
AcDbSymbolTableRecord
100
AcDbLayerTableRecord
  2
INVISIBLE_LINES
 70
     0
 62
    -7
  6
CONTINUOUS
  0
LAYER
  5
10000057
330
2
100
AcDbSymbolTableRecord
100
AcDbLayerTableRecord
  2
VIEW_HATCHES
 70
     0
 62
    -7
  6
CONTINUOUS
  0
LAYER
  5
10000058
330
2
100
AcDbSymbolTableRecord
100
AcDbLayerTableRecord
  2
SECTION_JOG_LINES
 70
     0
 62
    -7
  6
CONTINUOUS
  0
ENDTAB
  0
TABLE
  2
STYLE
  5
3
330
0
100
AcDbSymbolTable
 70
     2
  0
STYLE
  5
11
330
3
100
AcDbSymbolTableRecord
100
AcDbTextStyleTableRecord
  2
STANDARD
 70
     0
 40
0.0
 41
1.0
 50
0.0
 71
     0
 42
2.5
  3
txt
  4

  0
STYLE
  5
10000004
330
3
100
AcDbSymbolTableRecord
100
AcDbTextStyleTableRecord
  2
TTFSTYLE
 70
     0
 40
0.0
 41
1.0
 50
0.0
 71
     0
 42
2.5
  3

  4

1001
ACAD
1000
Verdana
1071
       34
  0
ENDTAB
  0
TABLE
  2
VIEW
  5
6
330
0
100
AcDbSymbolTable
 70
     0
  0
ENDTAB
  0
TABLE
  2
UCS
  5
7
330
0
100
AcDbSymbolTable
 70
     0
  0
ENDTAB
  0
TABLE
  2
APPID
  5
9
330
0
100
AcDbSymbolTable
 70
     2
  0
APPID
  5
12
330
9
100
AcDbSymbolTableRecord
100
AcDbRegAppTableRecord
  2
ACAD
 70
     0
  0
APPID
  5
10000228
330
9
100
AcDbSymbolTableRecord
100
AcDbRegAppTableRecord
  2
ACAD_MLEADERVER
 70
     0
  0
ENDTAB
  0
TABLE
  2
DIMSTYLE
  5
A
330
0
100
AcDbSymbolTable
 70
     1
  0
DIMSTYLE
105
27
330
A
100
AcDbSymbolTableRecord
100
AcDbDimStyleTableRecord
  2
ISO-25
 70
     0
  3

  4

  5

  6

  7

 40
1.0
 41
2.5
 42
0.625
 43
3.75
 44
1.25
 45
0.0
 46
0.0
 47
0.0
 48
0.0
140
2.5
141
2.5
142
0.0
143
0.03937007874016
144
1.0
145
0.0
146
1.0
147
0.625
 71
     0
 72
     0
 73
     0
 74
     0
 75
     0
 76
     0
 77
     1
 78
     8
170
     0
171
     3
172
     1
173
     0
174
     0
175
     0
176
     0
177
     0
178
     0
270
     2
271
     2
272
     2
273
     2
274
     3
340
11
275
     0
280
     0
281
     0
282
     0
283
     0
284
     8
285
     0
286
     0
287
     3
288
     0
  0
ENDTAB
  0
TABLE
  2
BLOCK_RECORD
  5
1
330
0
100
AcDbSymbolTable
 70
     0
  0
BLOCK_RECORD
  5
1F
102
{ACAD_XDICTIONARY
360
100001EF
102
}
330
1
100
AcDbSymbolTableRecord
100
AcDbBlockTableRecord
  2
*MODEL_SPACE
  0
BLOCK_RECORD
  5
1B
330
1
100
AcDbSymbolTableRecord
100
AcDbBlockTableRecord
  2
*PAPER_SPACE
  0
ENDTAB
  0
ENDSEC
  0
SECTION
  2
BLOCKS
  0
BLOCK
  5
20
330
1F
100
AcDbEntity
  8
0
100
AcDbBlockBegin
  2
*MODEL_SPACE
 70
     0
 10
0.0
 20
0.0
 30
0.0
  3
*MODEL_SPACE
  1

  0
ENDBLK
  5
21
330
1F
100
AcDbEntity
  8
0
100
AcDbBlockEnd
  0
BLOCK
  5
1C
330
1B
100
AcDbEntity
 67
     1
  8
0
100
AcDbBlockBegin
  2
*PAPER_SPACE
 70
     0
 10
0.0
 20
0.0
 30
0.0
  3
*PAPER_SPACE
  1

  0
ENDBLK
  5
1D
330
1B
100
AcDbEntity
 67
     1
  8
0
100
AcDbBlockEnd
  0
ENDSEC
  0
SECTION
  2
ENTITIES
  0
CIRCLE
  5
10000059
102
{ACAD_XDICTIONARY
360
1000005A
102
}
330
1F
100
AcDbEntity
  8
VISIBLE
100
AcDbCircle
 10
0.0
 20
0.0
 30
0.0
 40
2.5
  0
ARC
  5
1000005F
102
{ACAD_XDICTIONARY
360
10000060
102
}
330
1F
100
AcDbEntity
  8
VISIBLE
100
AcDbCircle
 10
0.0
 20
0.0
 30
0.0
 40
9.4492
100
AcDbArc
 50
156.5885892682923
 51
167.4114107317076
  0
ARC
  5
10000065
102
{ACAD_XDICTIONARY
360
10000066
102
}
330
1F
100
AcDbEntity
  8
VISIBLE
100
AcDbCircle
 10
-9.682696205942081
 20
2.16231441363991
 30
0.0
 40
0.472
100
AcDbArc
 50
260.1879237894639
 51
347.4114107317066
  0
LINE
  5
1000006B
102
{ACAD_XDICTIONARY
360
1000006C
102
}
330
1F
100
AcDbEntity
  8
VISIBLE
100
AcDbLine
 10
-9.76313311936103
 20
1.697218828883795
 30
0.0
 11
-11.5728686531953
 21
2.01020726656712
 31
0.0
  0
SPLINE
  5
1000006F
102
{ACAD_XDICTIONARY
360
10000070
102
}
330
1F
100
AcDbEntity
  8
VISIBLE
100
AcDbSpline
210
0.0
220
0.0
230
1.0
 70
    12
 71
     5
 72
    81
 73
    75
 74
     0
 42
0.0000000001
 43
0.00000001
 40
0.0
 40
0.0
 40
0.0
 40
0.0
 40
0.0
 40
0.0
 40
0.0142857142857143
 40
0.0285714285714286
 40
0.0428571428571429
 40
0.0571428571428571
 40
0.0714285714285714
 40
0.0857142857142857
 40
0.1
 40
0.114285714285714
 40
0.128571428571429
 40
0.142857142857143
 40
0.157142857142857
 40
0.171428571428571
 40
0.185714285714286
 40
0.2
 40
0.214285714285714
 40
0.228571428571429
 40
0.242857142857143
 40
0.257142857142857
 40
0.271428571428571
 40
0.285714285714286
 40
0.3
 40
0.314285714285714
 40
0.328571428571429
 40
0.342857142857143
 40
0.357142857142857
 40
0.371428571428571
 40
0.385714285714286
 40
0.4
 40
0.414285714285714
 40
0.428571428571429
 40
0.442857142857143
 40
0.457142857142857
 40
0.471428571428572
 40
0.485714285714286
 40
0.5
 40
0.514285714285714
 40
0.528571428571429
 40
0.542857142857143
 40
0.5571428571428569
 40
0.571428571428571
 40
0.585714285714286
 40
0.6
 40
0.614285714285714
 40
0.628571428571428
 40
0.642857142857142
 40
0.6571428571428569
 40
0.6714285714285709
 40
0.6857142857142849
 40
0.7
 40
0.714285714285714
 40
0.728571428571428
 40
0.742857142857142
 40
0.7571428571428559
 40
0.7714285714285709
 40
0.7857142857142849
 40
0.8
 40
0.8142857142857131
 40
0.8285714285714281
 40
0.842857142857142
 40
0.857142857142856
 40
0.87142857142857
 40
0.885714285714284
 40
0.9
 40
0.914285714285713
 40
0.928571428571427
 40
0.9428571428571411
 40
0.957142857142856
 40
0.97142857142857
 40
0.985714285714284
 40
1.0
 40
1.0
 40
1.0
 40
1.0
 40
1.0
 40
1.0
 10
-11.5728686531953
 20
2.01020726656712
 30
0.0
 41
1.0
 10
-11.5824592975177
 20
2.01186594029414
 30
0.0
 41
1.0
 10
-11.6016736875677
 20
2.01485333178966
 30
0.0
 41
1.0
 10
-11.6305945754231
 20
2.01834456884239
 30
0.0
 41
1.0
 10
-11.6693456525649
 20
2.02111870510291
 30
0.0
 41
1.0
 10
-11.7180499818272
 20
2.02202351736448
 30
0.0
 41
1.0
 10
-11.766954213864
 20
2.02108865172229
 30
0.0
 41
1.0
 10
-11.8159921780057
 20
2.01902334149304
 30
0.0
 41
1.0
 10
-11.8651125721738
 20
2.01633938674951
 30
0.0
 41
1.0
 10
-11.9142902055332
 20
2.01321969723371
 30
0.0
 41
1.0
 10
-11.9635170946661
 20
2.00963508576057
 30
0.0
 41
1.0
 10
-12.0127960501728
 20
2.00543066932083
 30
0.0
 41
1.0
 10
-12.0621337219162
 20
2.00041821812506
 30
0.0
 41
1.0
 10
-12.1115329110488
 20
1.99447932275839
 30
0.0
 41
1.0
 10
-12.1609884213459
 20
1.98761937478746
 30
0.0
 41
1.0
 10
-12.2104906789687
 20
1.97991440592071
 30
0.0
 41
1.0
 10
-12.2600277938477
 20
1.97147930129587
 30
0.0
 41
1.0
 10
-12.3095880452974
 20
1.96243044885724
 30
0.0
 41
1.0
 10
-12.3591626571893
 20
1.95284373461621
 30
0.0
 41
1.0
 10
-12.4087466892105
 20
1.94274084949296
 30
0.0
 41
1.0
 10
-12.4583374823923
 20
1.93211210925826
 30
0.0
 41
1.0
 10
-12.5079337019163
 20
1.92093036665838
 30
0.0
 41
1.0
 10
-12.5575342300086
 20
1.90916717924723
 30
0.0
 41
1.0
 10
-12.6071368992892
 20
1.89681131957146
 30
0.0
 41
1.0
 10
-12.6567382413582
 20
1.88387231394281
 30
0.0
 41
1.0
 10
-12.7063341054874
 20
1.87037114306549
 30
0.0
 41
1.0
 10
-12.7559200418107
 20
1.85633442114747
 30
0.0
 41
1.0
 10
-12.8054917430668
 20
1.84178772149882
 30
0.0
 41
1.0
 10
-12.8550455556784
 20
1.82674786736196
 30
0.0
 41
1.0
 10
-12.9045785165516
 20
1.81122229773717
 30
0.0
 41
1.0
 10
-12.9540880876573
 20
1.79521294107813
 30
0.0
 41
1.0
 10
-13.0035719769787
 20
1.77871880632511
 30
0.0
 41
1.0
 10
-13.0530279402568
 20
1.76173886747853
 30
0.0
 41
1.0
 10
-13.102453551099
 20
1.74427541861809
 30
0.0
 41
1.0
 10
-13.1518461901128
 20
1.72633419921897
 30
0.0
 41
1.0
 10
-13.2012031496093
 20
1.70792281610345
 30
0.0
 41
1.0
 10
-13.2505217049034
 20
1.689049666574
 30
0.0
 41
1.0
 10
-13.2997991928618
 20
1.66972275574538
 30
0.0
 41
1.0
 10
-13.3490331049224
 20
1.64994831684185
 30
0.0
 41
1.0
 10
-13.3982210839092
 20
1.62973080748038
 30
0.0
 41
1.0
 10
-13.4473608734618
 20
1.60907358921197
 30
0.0
 41
1.0
 10
-13.4964502815382
 20
1.58797941005141
 30
0.0
 41
1.0
 10
-13.5454871418497
 20
1.56645092767737
 30
0.0
 41
1.0
 10
-13.5944692682332
 20
1.54449132746499
 30
0.0
 41
1.0
 10
-13.6433944548555
 20
1.52210434788551
 30
0.0
 41
1.0
 10
-13.6922605004302
 20
1.49929399302711
 30
0.0
 41
1.0
 10
-13.7410652263997
 20
1.47606433886222
 30
0.0
 41
1.0
 10
-13.7898064955347
 20
1.45241932222026
 30
0.0
 41
1.0
 10
-13.8384822372038
 20
1.42836249441016
 30
0.0
 41
1.0
 10
-13.8870904408148
 20
1.40389700668462
 30
0.0
 41
1.0
 10
-13.9356291300123
 20
1.37902574508018
 30
0.0
 41
1.0
 10
-13.9840963417764
 20
1.35375142660572
 30
0.0
 41
1.0
 10
-14.0324901072485
 20
1.32807670409178
 30
0.0
 41
1.0
 10
-14.0808084244098
 20
1.30200429500414
 30
0.0
 41
1.0
 10
-14.1290492676467
 20
1.27553699932795
 30
0.0
 41
1.0
 10
-14.1772106268591
 20
1.24867762271783
 30
0.0
 41
1.0
 10
-14.2252905414896
 20
1.22142892678931
 30
0.0
 41
1.0
 10
-14.2732871311107
 20
1.19379357688996
 30
0.0
 41
1.0
 10
-14.3211986431663
 20
1.16577407965932
 30
0.0
 41
1.0
 10
-14.3690234389465
 20
1.13737277963226
 30
0.0
 41
1.0
 10
-14.4167599045884
 20
1.10859193026974
 30
0.0
 41
1.0
 10
-14.464406377217
 20
1.07943375150263
 30
0.0
 41
1.0
 10
-14.5119610753829
 20
1.04990048856029
 30
0.0
 41
1.0
 10
-14.5594220046264
 20
1.01999448962438
 30
0.0
 41
1.0
 10
-14.6067869519555
 20
0.9897182235409151
 30
0.0
 41
1.0
 10
-14.6540536724834
 20
0.959074163181631
 30
0.0
 41
1.0
 10
-14.7012200400072
 20
0.928064698109351
 30
0.0
 41
1.0
 10
-14.7482842060817
 20
0.896692040020362
 30
0.0
 41
1.0
 10
-14.7952447723622
 20
0.864958129363559
 30
0.0
 41
1.0
 10
-14.8421009111086
 20
0.832864557057314
 30
0.0
 41
1.0
 10
-14.8888522056636
 20
0.800412566721399
 30
0.0
 41
1.0
 10
-14.9261692641211
 20
0.7741649516821291
 30
0.0
 41
1.0
 10
-14.9541098328272
 20
0.754318593074255
 30
0.0
 41
1.0
 10
-14.972715896694
 20
0.741016312229039
 30
0.0
 41
1.0
 10
-14.9820136831407
 20
0.7343473280302
 30
0.0
 41
1.0
  0
ARC
  5
10000073
102
{ACAD_XDICTIONARY
360
10000074
102
}
330
1F
100
AcDbEntity
  8
VISIBLE
100
AcDbCircle
 10
-0.0000000000000266
 20
0.0
 30
0.0
 40
15.0
100
AcDbArc
 50
177.1938781419727
 51
182.8061218580273
  0
SPLINE
  5
10000079
102
{ACAD_XDICTIONARY
360
1000007A
102
}
330
1F
100
AcDbEntity
  8
VISIBLE
100
AcDbSpline
210
0.0
220
0.0
230
1.0
 70
    12
 71
     5
 72
    81
 73
    75
 74
     0
 42
0.0000000001
 43
0.00000001
 40
-1.0
 40
-1.0
 40
-1.0
 40
-1.0
 40
-1.0
 40
-1.0
 40
-0.985714285714284
 40
-0.97142857142857
 40
-0.957142857142856
 40
-0.9428571428571411
 40
-0.928571428571427
 40
-0.914285714285713
 40
-0.9
 40
-0.885714285714284
 40
-0.87142857142857
 40
-0.857142857142856
 40
-0.842857142857142
 40
-0.8285714285714281
 40
-0.8142857142857131
 40
-0.8
 40
-0.7857142857142849
 40
-0.7714285714285709
 40
-0.7571428571428559
 40
-0.742857142857142
 40
-0.728571428571428
 40
-0.714285714285714
 40
-0.7
 40
-0.6857142857142849
 40
-0.6714285714285709
 40
-0.6571428571428569
 40
-0.642857142857142
 40
-0.628571428571428
 40
-0.614285714285714
 40
-0.6
 40
-0.585714285714286
 40
-0.571428571428571
 40
-0.5571428571428569
 40
-0.542857142857143
 40
-0.528571428571429
 40
-0.514285714285714
 40
-0.5
 40
-0.485714285714286
 40
-0.471428571428572
 40
-0.457142857142857
 40
-0.442857142857143
 40
-0.428571428571429
 40
-0.414285714285714
 40
-0.4
 40
-0.385714285714286
 40
-0.371428571428571
 40
-0.357142857142857
 40
-0.342857142857143
 40
-0.328571428571429
 40
-0.314285714285714
 40
-0.3
 40
-0.285714285714286
 40
-0.271428571428571
 40
-0.257142857142857
 40
-0.242857142857143
 40
-0.228571428571429
 40
-0.214285714285714
 40
-0.2
 40
-0.185714285714286
 40
-0.171428571428571
 40
-0.157142857142857
 40
-0.142857142857143
 40
-0.128571428571429
 40
-0.114285714285714
 40
-0.1
 40
-0.0857142857142857
 40
-0.0714285714285714
 40
-0.0571428571428571
 40
-0.0428571428571429
 40
-0.0285714285714286
 40
-0.0142857142857143
 40
0.0
 40
0.0
 40
0.0
 40
0.0
 40
0.0
 40
0.0
 10
-14.9820136831407
 20
-0.7343473280302
 30
0.0
 41
1.0
 10
-14.972715896694
 20
-0.741016312229039
 30
0.0
 41
1.0
 10
-14.9541098328272
 20
-0.754318593074255
 30
0.0
 41
1.0
 10
-14.9261692641211
 20
-0.7741649516821291
 30
0.0
 41
1.0
 10
-14.8888522056636
 20
-0.800412566721399
 30
0.0
 41
1.0
 10
-14.8421009111086
 20
-0.832864557057314
 30
0.0
 41
1.0
 10
-14.7952447723622
 20
-0.864958129363559
 30
0.0
 41
1.0
 10
-14.7482842060817
 20
-0.896692040020362
 30
0.0
 41
1.0
 10
-14.7012200400072
 20
-0.928064698109351
 30
0.0
 41
1.0
 10
-14.6540536724834
 20
-0.959074163181631
 30
0.0
 41
1.0
 10
-14.6067869519555
 20
-0.9897182235409151
 30
0.0
 41
1.0
 10
-14.5594220046264
 20
-1.01999448962438
 30
0.0
 41
1.0
 10
-14.5119610753829
 20
-1.04990048856029
 30
0.0
 41
1.0
 10
-14.464406377217
 20
-1.07943375150263
 30
0.0
 41
1.0
 10
-14.4167599045884
 20
-1.10859193026974
 30
0.0
 41
1.0
 10
-14.3690234389465
 20
-1.13737277963226
 30
0.0
 41
1.0
 10
-14.3211986431663
 20
-1.16577407965932
 30
0.0
 41
1.0
 10
-14.2732871311107
 20
-1.19379357688996
 30
0.0
 41
1.0
 10
-14.2252905414896
 20
-1.22142892678931
 30
0.0
 41
1.0
 10
-14.1772106268591
 20
-1.24867762271783
 30
0.0
 41
1.0
 10
-14.1290492676467
 20
-1.27553699932795
 30
0.0
 41
1.0
 10
-14.0808084244098
 20
-1.30200429500414
 30
0.0
 41
1.0
 10
-14.0324901072485
 20
-1.32807670409178
 30
0.0
 41
1.0
 10
-13.9840963417764
 20
-1.35375142660572
 30
0.0
 41
1.0
 10
-13.9356291300123
 20
-1.37902574508018
 30
0.0
 41
1.0
 10
-13.8870904408148
 20
-1.40389700668462
 30
0.0
 41
1.0
 10
-13.8384822372038
 20
-1.42836249441016
 30
0.0
 41
1.0
 10
-13.7898064955347
 20
-1.45241932222026
 30
0.0
 41
1.0
 10
-13.7410652263997
 20
-1.47606433886222
 30
0.0
 41
1.0
 10
-13.6922605004302
 20
-1.49929399302711
 30
0.0
 41
1.0
 10
-13.6433944548555
 20
-1.52210434788551
 30
0.0
 41
1.0
 10
-13.5944692682332
 20
-1.54449132746499
 30
0.0
 41
1.0
 10
-13.5454871418497
 20
-1.56645092767737
 30
0.0
 41
1.0
 10
-13.4964502815382
 20
-1.58797941005141
 30
0.0
 41
1.0
 10
-13.4473608734618
 20
-1.60907358921197
 30
0.0
 41
1.0
 10
-13.3982210839092
 20
-1.62973080748038
 30
0.0
 41
1.0
 10
-13.3490331049224
 20
-1.64994831684185
 30
0.0
 41
1.0
 10
-13.2997991928618
 20
-1.66972275574538
 30
0.0
 41
1.0
 10
-13.2505217049034
 20
-1.689049666574
 30
0.0
 41
1.0
 10
-13.2012031496093
 20
-1.70792281610345
 30
0.0
 41
1.0
 10
-13.1518461901128
 20
-1.72633419921897
 30
0.0
 41
1.0
 10
-13.102453551099
 20
-1.74427541861809
 30
0.0
 41
1.0
 10
-13.0530279402568
 20
-1.76173886747853
 30
0.0
 41
1.0
 10
-13.0035719769787
 20
-1.77871880632511
 30
0.0
 41
1.0
 10
-12.9540880876573
 20
-1.79521294107813
 30
0.0
 41
1.0
 10
-12.9045785165516
 20
-1.81122229773717
 30
0.0
 41
1.0
 10
-12.8550455556784
 20
-1.82674786736196
 30
0.0
 41
1.0
 10
-12.8054917430668
 20
-1.84178772149882
 30
0.0
 41
1.0
 10
-12.7559200418107
 20
-1.85633442114747
 30
0.0
 41
1.0
 10
-12.7063341054874
 20
-1.87037114306549
 30
0.0
 41
1.0
 10
-12.6567382413582
 20
-1.88387231394281
 30
0.0
 41
1.0
 10
-12.6071368992892
 20
-1.89681131957146
 30
0.0
 41
1.0
 10
-12.5575342300086
 20
-1.90916717924723
 30
0.0
 41
1.0
 10
-12.5079337019163
 20
-1.92093036665838
 30
0.0
 41
1.0
 10
-12.4583374823923
 20
-1.93211210925826
 30
0.0
 41
1.0
 10
-12.4087466892105
 20
-1.94274084949296
 30
0.0
 41
1.0
 10
-12.3591626571893
 20
-1.95284373461621
 30
0.0
 41
1.0
 10
-12.3095880452974
 20
-1.96243044885724
 30
0.0
 41
1.0
 10
-12.2600277938477
 20
-1.97147930129587
 30
0.0
 41
1.0
 10
-12.2104906789687
 20
-1.97991440592071
 30
0.0
 41
1.0
 10
-12.1609884213459
 20
-1.98761937478746
 30
0.0
 41
1.0
 10
-12.1115329110488
 20
-1.99447932275839
 30
0.0
 41
1.0
 10
-12.0621337219162
 20
-2.00041821812506
 30
0.0
 41
1.0
 10
-12.0127960501728
 20
-2.00543066932083
 30
0.0
 41
1.0
 10
-11.9635170946661
 20
-2.00963508576057
 30
0.0
 41
1.0
 10
-11.9142902055332
 20
-2.01321969723371
 30
0.0
 41
1.0
 10
-11.8651125721738
 20
-2.01633938674951
 30
0.0
 41
1.0
 10
-11.8159921780057
 20
-2.01902334149304
 30
0.0
 41
1.0
 10
-11.766954213864
 20
-2.02108865172229
 30
0.0
 41
1.0
 10
-11.7180499818272
 20
-2.02202351736448
 30
0.0
 41
1.0
 10
-11.6693456525649
 20
-2.02111870510291
 30
0.0
 41
1.0
 10
-11.6305945754231
 20
-2.01834456884239
 30
0.0
 41
1.0
 10
-11.6016736875677
 20
-2.01485333178966
 30
0.0
 41
1.0
 10
-11.5824592975177
 20
-2.01186594029414
 30
0.0
 41
1.0
 10
-11.5728686531953
 20
-2.01020726656712
 30
0.0
 41
1.0
  0
LINE
  5
1000007D
102
{ACAD_XDICTIONARY
360
1000007E
102
}
330
1F
100
AcDbEntity
  8
VISIBLE
100
AcDbLine
 10
-11.5728686531953
 20
-2.01020726656712
 30
0.0
 11
-9.76313311936103
 21
-1.697218828883795
 31
0.0
  0
ARC
  5
10000081
102
{ACAD_XDICTIONARY
360
10000082
102
}
330
1F
100
AcDbEntity
  8
VISIBLE
100
AcDbCircle
 10
-9.682696205942081
 20
-2.16231441363991
 30
0.0
 40
0.472
100
AcDbArc
 50
12.58858926829345
 51
99.81207621053615
  0
ARC
  5
10000087
102
{ACAD_XDICTIONARY
360
10000088
102
}
330
1F
100
AcDbEntity
  8
VISIBLE
100
AcDbCircle
 10
0.0
 20
0.0
 30
0.0
 40
9.4492
100
AcDbArc
 50
192.5885892682924
 51
203.4114107317076
  0
ARC
  5
1000008D
102
{ACAD_XDICTIONARY
360
1000008E
102
}
330
1F
100
AcDbEntity
  8
VISIBLE
100
AcDbCircle
 10
-9.10444230513395
 20
-3.94199692446445
 30
0.0
 40
0.472
100
AcDbArc
 50
296.1879237894635
 51
23.41141073170757
  0
LINE
  5
10000093
102
{ACAD_XDICTIONARY
360
10000094
102
}
330
1F
100
AcDbEntity
  8
VISIBLE
100
AcDbLine
 10
-8.896140809438961
 20
-4.36554678798849
 30
0.0
 11
-10.5442175994434
 21
-5.17606968019724
 31
0.0
  0
SPLINE
  5
10000097
102
{ACAD_XDICTIONARY
360
10000098
102
}
330
1F
100
AcDbEntity
  8
VISIBLE
100
AcDbSpline
210
0.0
220
0.0
230
1.0
 70
    12
 71
     5
 72
    81
 73
    75
 74
     0
 42
0.0000000001
 43
0.00000001
 40
0.0
 40
0.0
 40
0.0
 40
0.0
 40
0.0
 40
0.0
 40
0.0142857142857143
 40
0.0285714285714286
 40
0.0428571428571429
 40
0.0571428571428571
 40
0.0714285714285714
 40
0.0857142857142857
 40
0.1
 40
0.114285714285714
 40
0.128571428571429
 40
0.142857142857143
 40
0.157142857142857
 40
0.171428571428571
 40
0.185714285714286
 40
0.2
 40
0.214285714285714
 40
0.228571428571429
 40
0.242857142857143
 40
0.257142857142857
 40
0.271428571428571
 40
0.285714285714286
 40
0.3
 40
0.314285714285714
 40
0.328571428571429
 40
0.342857142857143
 40
0.357142857142857
 40
0.371428571428571
 40
0.385714285714286
 40
0.4
 40
0.414285714285714
 40
0.428571428571429
 40
0.442857142857143
 40
0.457142857142857
 40
0.471428571428572
 40
0.485714285714286
 40
0.5
 40
0.514285714285714
 40
0.528571428571429
 40
0.542857142857143
 40
0.5571428571428569
 40
0.571428571428571
 40
0.585714285714286
 40
0.6
 40
0.614285714285714
 40
0.628571428571428
 40
0.642857142857142
 40
0.6571428571428569
 40
0.6714285714285709
 40
0.6857142857142849
 40
0.7
 40
0.714285714285714
 40
0.728571428571428
 40
0.742857142857142
 40
0.7571428571428559
 40
0.7714285714285709
 40
0.7857142857142849
 40
0.8
 40
0.8142857142857131
 40
0.8285714285714281
 40
0.842857142857142
 40
0.857142857142856
 40
0.87142857142857
 40
0.885714285714284
 40
0.9
 40
0.914285714285713
 40
0.928571428571427
 40
0.9428571428571411
 40
0.957142857142856
 40
0.97142857142857
 40
0.985714285714284
 40
1.0
 40
1.0
 40
1.0
 40
1.0
 40
1.0
 40
1.0
 10
-10.5442175994434
 20
-5.176069680197251
 30
0.0
 41
1.0
 10
-10.5529515376423
 20
-5.18036502425663
 30
0.0
 41
1.0
 10
-10.5702522503933
 20
-5.189242108871119
 30
0.0
 41
1.0
 10
-10.5957018378125
 20
-5.20341691012864
 30
0.0
 41
1.0
 10
-10.6286827141523
 20
-5.22394989840357
 30
0.0
 41
1.0
 10
-10.6686171795286
 20
-5.25184557637045
 30
0.0
 41
1.0
 10
-10.7076320341059
 20
-5.28134708492837
 30
0.0
 41
1.0
 10
-10.7460906215719
 20
-5.31184174812738
 30
0.0
 41
1.0
 10
-10.7842522662083
 20
-5.34288535640585
 30
0.0
 41
1.0
 10
-10.82220409985
 20
-5.374315125872629
 30
0.0
 41
1.0
 10
-10.8599225079797
 20
-5.40614997692118
 30
0.0
 41
1.0
 10
-10.8973187264719
 20
-5.43851686456756
 30
0.0
 41
1.0
 10
-10.9342874964844
 20
-5.47157197860162
 30
0.0
 41
1.0
 10
-10.9707614848896
 20
-5.50541276072843
 30
0.0
 41
1.0
 10
-11.0067396569367
 20
-5.5400317948147
 30
0.0
 41
1.0
 10
-11.0422589575442
 20
-5.57536194255486
 30
0.0
 41
1.0
 10
-11.0773772952336
 20
-5.61130327111269
 30
0.0
 41
1.0
 10
-11.1121535988883
 20
-5.64775473141721
 30
0.0
 41
1.0
 10
-11.1466253731495
 20
-5.684649771916571
 30
0.0
 41
1.0
 10
-11.1808013708233
 20
-5.72196794044476
 30
0.0
 41
1.0
 10
-11.2146737485115
 20
-5.7597155088052
 30
0.0
 41
1.0
 10
-11.248225469568
 20
-5.79791365500088
 30
0.0
 41
1.0
 10
-11.2814389116444
 20
-5.83658473244308
 30
0.0
 41
1.0
 10
-11.314305721962
 20
-5.875736550378379
 30
0.0
 41
1.0
 10
-11.3468286939518
 20
-5.91535936318434
 30
0.0
 41
1.0
 10
-11.3790168017526
 20
-5.95543375737789
 30
0.0
 41
1.0
 10
-11.4108820887862
 20
-5.995935586046841
 30
0.0
 41
1.0
 10
-11.4424361020195
 20
-6.036841628204071
 30
0.0
 41
1.0
 10
-11.4736857741001
 20
-6.07813612604165
 30
0.0
 41
1.0
 10
-11.5046330803693
 20
-6.11981131961912
 30
0.0
 41
1.0
 10
-11.5352771010352
 20
-6.16186415696855
 30
0.0
 41
1.0
 10
-11.5656153992868
 20
-6.20429409266043
 30
0.0
 41
1.0
 10
-11.5956455564131
 20
-6.247100637603521
 30
0.0
 41
1.0
 10
-11.6253669578475
 20
-6.29028050965063
 30
0.0
 41
1.0
 10
-11.6547808580357
 20
-6.33382752582842
 30
0.0
 41
1.0
 10
-11.6838895375895
 20
-6.37773394054891
 30
0.0
 41
1.0
 10
-11.7126957280027
 20
-6.421991358721849
 30
0.0
 41
1.0
 10
-11.7412019800437
 20
-6.466591738722911
 30
0.0
 41
1.0
 10
-11.7694099280404
 20
-6.51152856327198
 30
0.0
 41
1.0
 10
-11.797320285119
 20
-6.556796840567871
 30
0.0
 41
1.0
 10
-11.8249332017154
 20
-6.602392524803269
 30
0.0
 41
1.0
 10
-11.8522485196733
 20
-6.64831210433768
 30
0.0
 41
1.0
 10
-11.8792660485724
 20
-6.694552155751199
 30
0.0
 41
1.0
 10
-11.9059858920862
 20
-6.741108817026841
 30
0.0
 41
1.0
 10
-11.9324084630764
 20
-6.787977767121609
 30
0.0
 41
1.0
 10
-11.9585343342089
 20
-6.83515447277645
 30
0.0
 41
1.0
 10
-11.9843641387901
 20
-6.882634355936339
 30
0.0
 41
1.0
 10
-12.0098984617753
 20
-6.93041297540753
 30
0.0
 41
1.0
 10
-12.0351377153957
 20
-6.97848624103415
 30
0.0
 41
1.0
 10
-12.0600821253078
 20
-7.02685042160273
 30
0.0
 41
1.0
 10
-12.0847317889763
 20
-7.07550202058821
 30
0.0
 41
1.0
 10
-12.1090867153024
 20
-7.124437686049929
 30
0.0
 41
1.0
 10
-12.1331468707407
 20
-7.173654114537
 30
0.0
 41
1.0
 10
-12.1569122329103
 20
-7.223147930816159
 30
0.0
 41
1.0
 10
-12.1803828088455
 20
-7.272915679026191
 30
0.0
 41
1.0
 10
-12.2035586214633
 20
-7.32295390783748
 30
0.0
 41
1.0
 10
-12.2264397078765
 20
-7.37325923066952
 30
0.0
 41
1.0
 10
-12.2490261134392
 20
-7.42382838592319
 30
0.0
 41
1.0
 10
-12.2713178936696
 20
-7.47465831555794
 30
0.0
 41
1.0
 10
-12.2933151009064
 20
-7.525746159595641
 30
0.0
 41
1.0
 10
-12.3150177540584
 20
-7.57708914634338
 30
0.0
 41
1.0
 10
-12.3364258126739
 20
-7.628684502425831
 30
0.0
 41
1.0
 10
-12.3575391552429
 20
-7.68052936430467
 30
0.0
 41
1.0
 10
-12.3783575484401
 20
-7.73262065994698
 30
0.0
 41
1.0
 10
-12.3988806530687
 20
-7.78495509125036
 30
0.0
 41
1.0
 10
-12.4191081064946
 20
-7.837529338108221
 30
0.0
 41
1.0
 10
-12.4390395931333
 20
-7.8903402175729
 30
0.0
 41
1.0
 10
-12.4586749175638
 20
-7.94338485385564
 30
0.0
 41
1.0
 10
-12.4780140890685
 20
-7.99666085517392
 30
0.0
 41
1.0
 10
-12.4970573731102
 20
-8.0501664479144
 30
0.0
 41
1.0
 10
-12.5158051635872
 20
-8.10390038106244
 30
0.0
 41
1.0
 10
-12.5305673370314
 20
-8.14706956431126
 30
0.0
 41
1.0
 10
-12.5415063350458
 20
-8.17954865992763
 30
0.0
 41
1.0
 10
-12.5487400724098
 20
-8.20124680113947
 30
0.0
 41
1.0
 10
-12.5523422090954
 20
-8.212107224443871
 30
0.0
 41
1.0
  0
ARC
  5
1000009B
102
{ACAD_XDICTIONARY
360
1000009C
102
}
330
1F
100
AcDbEntity
  8
VISIBLE
100
AcDbCircle
 10
-0.0000000000000216
 20
-0.0000000000000157
 30
0.0
 40
15.0
100
AcDbArc
 50
213.1938781419726
 51
218.8061218580273
  0
SPLINE
  5
100000A1
102
{ACAD_XDICTIONARY
360
100000A2
102
}
330
1F
100
AcDbEntity
  8
VISIBLE
100
AcDbSpline
210
0.0
220
0.0
230
1.0
 70
    12
 71
     5
 72
    81
 73
    75
 74
     0
 42
0.0000000001
 43
0.00000001
 40
-1.0
 40
-1.0
 40
-1.0
 40
-1.0
 40
-1.0
 40
-1.0
 40
-0.985714285714284
 40
-0.97142857142857
 40
-0.957142857142856
 40
-0.9428571428571411
 40
-0.928571428571427
 40
-0.914285714285713
 40
-0.9
 40
-0.885714285714284
 40
-0.87142857142857
 40
-0.857142857142856
 40
-0.842857142857142
 40
-0.8285714285714281
 40
-0.8142857142857131
 40
-0.8
 40
-0.7857142857142849
 40
-0.7714285714285709
 40
-0.7571428571428559
 40
-0.742857142857142
 40
-0.728571428571428
 40
-0.714285714285714
 40
-0.7
 40
-0.6857142857142849
 40
-0.6714285714285709
 40
-0.6571428571428569
 40
-0.642857142857142
 40
-0.628571428571428
 40
-0.614285714285714
 40
-0.6
 40
-0.585714285714286
 40
-0.571428571428571
 40
-0.5571428571428569
 40
-0.542857142857143
 40
-0.528571428571429
 40
-0.514285714285714
 40
-0.5
 40
-0.485714285714286
 40
-0.471428571428572
 40
-0.457142857142857
 40
-0.442857142857143
 40
-0.428571428571429
 40
-0.414285714285714
 40
-0.4
 40
-0.385714285714286
 40
-0.371428571428571
 40
-0.357142857142857
 40
-0.342857142857143
 40
-0.328571428571429
 40
-0.314285714285714
 40
-0.3
 40
-0.285714285714286
 40
-0.271428571428571
 40
-0.257142857142857
 40
-0.242857142857143
 40
-0.228571428571429
 40
-0.214285714285714
 40
-0.2
 40
-0.185714285714286
 40
-0.171428571428571
 40
-0.157142857142857
 40
-0.142857142857143
 40
-0.128571428571429
 40
-0.114285714285714
 40
-0.1
 40
-0.0857142857142857
 40
-0.0714285714285714
 40
-0.0571428571428571
 40
-0.0428571428571429
 40
-0.0285714285714286
 40
-0.0142857142857143
 40
0.0
 40
0.0
 40
0.0
 40
0.0
 40
0.0
 40
0.0
 10
-11.6890651501423
 20
-9.4003061607444
 30
0.0
 41
1.0
 10
-11.677623152337
 20
-9.40023638054416
 30
0.0
 41
1.0
 10
-11.6547516459677
 20
-9.40006178186778
 30
0.0
 41
1.0
 10
-11.6204818541505
 20
-9.399694769031871
 30
0.0
 41
1.0
 10
-11.5748637586504
 20
-9.39899511904021
 30
0.0
 41
1.0
 10
-11.5179663655194
 20
-9.39776960925826
 30
0.0
 41
1.0
 10
-11.4611948244877
 20
-9.396192507329692
 30
0.0
 41
1.0
 10
-11.4045502036197
 20
-9.394263052050071
 30
0.0
 41
1.0
 10
-11.3480341076895
 20
-9.39198044287274
 30
0.0
 41
1.0
 10
-11.2916488085488
 20
-9.38934393186796
 30
0.0
 41
1.0
 10
-11.2353971016237
 20
-9.38635281622472
 30
0.0
 41
1.0
 10
-11.1792821115985
 20
-9.38300641249682
 30
0.0
 41
1.0
 10
-11.1233071081421
 20
-9.37930403960033
 30
0.0
 41
1.0
 10
-11.0674753327539
 20
-9.37524500096089
 30
0.0
 41
1.0
 10
-11.0117897792124
 20
-9.37082856917366
 30
0.0
 41
1.0
 10
-10.9562532084529
 20
-9.36605397491958
 30
0.0
 41
1.0
 10
-10.9008682706124
 20
-9.36092039965034
 30
0.0
 41
1.0
 10
-10.8456375958844
 20
-9.35542696888245
 30
0.0
 41
1.0
 10
-10.7905638880961
 20
-9.34957274905692
 30
0.0
 41
1.0
 10
-10.735650038461
 20
-9.34335674238635
 30
0.0
 41
1.0
 10
-10.6808991349288
 20
-9.33677789784687
 30
0.0
 41
1.0
 10
-10.6263143868605
 20
-9.32983513363121
 30
0.0
 41
1.0
 10
-10.5718990695841
 20
-9.32252736142444
 30
0.0
 41
1.0
 10
-10.5176564676449
 20
-9.31485350661664
 30
0.0
 41
1.0
 10
-10.4635897979968
 20
-9.30681254748909
 30
0.0
 41
1.0
 10
-10.4097022127743
 20
-9.29840349512269
 30
0.0
 41
1.0
 10
-10.3559968971118
 20
-9.289625305245359
 30
0.0
 41
1.0
 10
-10.3024771462839
 20
-9.28047680467699
 30
0.0
 41
1.0
 10
-10.249146439154
 20
-9.27095662579705
 30
0.0
 41
1.0
 10
-10.1960085383049
 20
-9.26106311262286
 30
0.0
 41
1.0
 10
-10.1430674868017
 20
-9.25079433642435
 30
0.0
 41
1.0
 10
-10.0903274429311
 20
-9.240148280194632
 30
0.0
 41
1.0
 10
-10.0377925411151
 20
-9.22912299844199
 30
0.0
 41
1.0
 10
-9.985466763328661
 20
-9.21771676323586
 30
0.0
 41
1.0
 10
-9.93335375053119
 20
-9.20592828254803
 30
0.0
 41
1.0
 10
-9.881456817431609
 20
-9.19375667958395
 30
0.0
 41
1.0
 10
-9.829779352671551
 20
-9.181201019602781
 30
0.0
 41
1.0
 10
-9.7783251575551
 20
-9.16825990930807
 30
0.0
 41
1.0
 10
-9.72709875919926
 20
-9.15493112792526
 30
0.0
 41
1.0
 10
-9.6761058508706
 20
-9.141211107165718
 30
0.0
 41
1.0
 10
-9.62535329237759
 20
-9.12709493610605
 30
0.0
 41
1.0
 10
-9.574848223847479
 20
-9.11257742271566
 30
0.0
 41
1.0
 10
-9.524597307024418
 20
-9.09765400448553
 30
0.0
 41
1.0
 10
-9.47460603462044
 20
-9.0823215777231
 30
0.0
 41
1.0
 10
-9.424877718054521
 20
-9.06657971267663
 30
0.0
 41
1.0
 10
-9.375413569902921
 20
-9.05043055853954
 30
0.0
 41
1.0
 10
-9.326214861915888
 20
-9.03387626430969
 30
0.0
 41
1.0
 10
-9.277284780918789
 20
-9.016916761651391
 30
0.0
 41
1.0
 10
-9.228630096639481
 20
-8.9995477739498
 30
0.0
 41
1.0
 10
-9.180263653337999
 20
-8.981757838434849
 30
0.0
 41
1.0
 10
-9.13220396727641
 20
-8.96352879760873
 30
0.0
 41
1.0
 10
-9.08447028191093
 20
-8.94484173569054
 30
0.0
 41
1.0
 10
-9.03707828739974
 20
-8.925682118670869
 30
0.0
 41
1.0
 10
-8.990036389162881
 20
-8.90604427827594
 30
0.0
 41
1.0
 10
-8.94333974131609
 20
-8.885938571660311
 30
0.0
 41
1.0
 10
-8.89697253010705
 20
-8.865388666257209
 30
0.0
 41
1.0
 10
-8.8509198786712
 20
-8.844417309242871
 30
0.0
 41
1.0
 10
-8.805178245912339
 20
-8.82303389822593
 30
0.0
 41
1.0
 10
-8.75976437823039
 20
-8.8012237887263
 30
0.0
 41
1.0
 10
-8.714729980340941
 20
-8.778930746150131
 30
0.0
 41
1.0
 10
-8.67015294559496
 20
-8.75606749991862
 30
0.0
 41
1.0
 10
-8.62611042105028
 20
-8.73254809481037
 30
0.0
 41
1.0
 10
-8.582654842422231
 20
-8.708316647242471
 30
0.0
 41
1.0
 10
-8.53979358262823
 20
-8.68337184961012
 30
0.0
 41
1.0
 10
-8.49745477618049
 20
-8.65780785066608
 30
0.0
 41
1.0
 10
-8.45552240453266
 20
-8.63177302281754
 30
0.0
 41
1.0
 10
-8.41390315591263
 20
-8.60539101702168
 30
0.0
 41
1.0
 10
-8.37258633324414
 20
-8.57869013874251
 30
0.0
 41
1.0
 10
-8.331699827989869
 20
-8.55153721769173
 30
0.0
 41
1.0
 10
-8.29158597293786
 20
-8.523548353517791
 30
0.0
 41
1.0
 10
-8.252715178168428
 20
-8.49418865855825
 30
0.0
 41
1.0
 10
-8.222995494592158
 20
-8.46916702352438
 30
0.0
 41
1.0
 10
-8.20165010247664
 20
-8.44934328205276
 30
0.0
 41
1.0
 10
-8.187861279053479
 20
-8.43563249646081
 30
0.0
 41
1.0
 10
-8.18107722876481
 20
-8.42865336193488
 30
0.0
 41
1.0
  0
LINE
  5
100000A5
102
{ACAD_XDICTIONARY
360
100000A6
102
}
330
1F
100
AcDbEntity
  8
VISIBLE
100
AcDbLine
 10
-8.18107722876481
 20
-8.42865336193488
 30
0.0
 11
-6.900940414376969
 21
-7.111704539468761
 31
0.0
  0
ARC
  5
100000A9
102
{ACAD_XDICTIONARY
360
100000AA
102
}
330
1F
100
AcDbEntity
  8
VISIBLE
100
AcDbCircle
 10
-6.562489258819981
 20
-7.44069514009762
 30
0.0
 40
0.472
100
AcDbArc
 50
48.58858926829208
 51
135.8120762105372
  0
ARC
  5
100000AF
102
{ACAD_XDICTIONARY
360
100000B0
102
}
330
1F
100
AcDbEntity
  8
VISIBLE
100
AcDbCircle
 10
0.0
 20
0.0
 30
0.0
 40
9.4492
100
AcDbArc
 50
228.5885892682924
 51
239.4114107317076
  0
ARC
  5
100000B5
102
{ACAD_XDICTIONARY
360
100000B6
102
}
330
1F
100
AcDbEntity
  8
VISIBLE
100
AcDbCircle
 10
-5.04860089237709
 20
-8.54059942097094
 30
0.0
 40
0.472
100
AcDbArc
 50
332.1879237894628
 51
59.41141073170833
  0
LINE
  5
100000BB
102
{ACAD_XDICTIONARY
360
100000BC
102
}
330
1F
100
AcDbEntity
  8
VISIBLE
100
AcDbLine
 10
-4.63112507901621
 20
-8.760821911327099
 30
0.0
 11
-5.488033807479
 21
-10.3852639372641
 31
0.0
  0
SPLINE
  5
100000BF
102
{ACAD_XDICTIONARY
360
100000C0
102
}
330
1F
100
AcDbEntity
  8
VISIBLE
100
AcDbSpline
210
0.0
220
0.0
230
1.0
 70
    12
 71
     5
 72
    81
 73
    75
 74
     0
 42
0.0000000001
 43
0.00000001
 40
0.0
 40
0.0
 40
0.0
 40
0.0
 40
0.0
 40
0.0
 40
0.0142857142857143
 40
0.0285714285714286
 40
0.0428571428571429
 40
0.0571428571428571
 40
0.0714285714285714
 40
0.0857142857142857
 40
0.1
 40
0.114285714285714
 40
0.128571428571429
 40
0.142857142857143
 40
0.157142857142857
 40
0.171428571428571
 40
0.185714285714286
 40
0.2
 40
0.214285714285714
 40
0.228571428571429
 40
0.242857142857143
 40
0.257142857142857
 40
0.271428571428571
 40
0.285714285714286
 40
0.3
 40
0.314285714285714
 40
0.328571428571429
 40
0.342857142857143
 40
0.357142857142857
 40
0.371428571428571
 40
0.385714285714286
 40
0.4
 40
0.414285714285714
 40
0.428571428571429
 40
0.442857142857143
 40
0.457142857142857
 40
0.471428571428572
 40
0.485714285714286
 40
0.5
 40
0.514285714285714
 40
0.528571428571429
 40
0.542857142857143
 40
0.5571428571428569
 40
0.571428571428571
 40
0.585714285714286
 40
0.6
 40
0.614285714285714
 40
0.628571428571428
 40
0.642857142857142
 40
0.6571428571428569
 40
0.6714285714285709
 40
0.6857142857142849
 40
0.7
 40
0.714285714285714
 40
0.728571428571428
 40
0.742857142857142
 40
0.7571428571428559
 40
0.7714285714285709
 40
0.7857142857142849
 40
0.8
 40
0.8142857142857131
 40
0.8285714285714281
 40
0.842857142857142
 40
0.857142857142856
 40
0.87142857142857
 40
0.885714285714284
 40
0.9
 40
0.914285714285713
 40
0.928571428571427
 40
0.9428571428571411
 40
0.957142857142856
 40
0.97142857142857
 40
0.985714285714284
 40
1.0
 40
1.0
 40
1.0
 40
1.0
 40
1.0
 40
1.0
 10
-5.48803380747899
 20
-10.3852639372641
 30
0.0
 41
1.0
 10
-5.492574972018089
 20
-10.3938726236725
 30
0.0
 41
1.0
 10
-5.50135372322865
 20
-10.4112234397953
 30
0.0
 41
1.0
 10
-5.51361113281729
 20
-10.4376499870665
 30
0.0
 41
1.0
 10
-5.528224234572099
 20
-10.4736471962464
 30
0.0
 41
1.0
 10
-5.54413522761118
 20
-10.5196881635976
 30
0.0
 41
1.0
 10
-5.55835835634656
 20
-10.5664877415216
 30
0.0
 41
1.0
 10
-5.57154769388417
 20
-10.6137638328238
 30
0.0
 41
1.0
 10
-5.58417413780424
 20
-10.6613094914083
 30
0.0
 41
1.0
 10
-5.59640386121262
 20
-10.7090442371483
 30
0.0
 41
1.0
 10
-5.60820663843498
 20
-10.7569694966985
 30
0.0
 41
1.0
 10
-5.61943603549937
 20
-10.8051358045807
 30
0.0
 41
1.0
 10
-5.62991509015861
 20
-10.853607651394
 30
0.0
 41
1.0
 10
-5.63953205397086
 20
-10.9024242917144
 30
0.0
 41
1.0
 10
-5.648290448898971
 20
-10.9515791175527
 30
0.0
 41
1.0
 10
-5.656259626915751
 20
-11.0010395285571
 30
0.0
 41
1.0
 10
-5.663545176046591
 20
-11.0507587151397
 30
0.0
 41
1.0
 10
-5.6702541659133
 20
-11.1006895644133
 30
0.0
 41
1.0
 10
-5.67645605642863
 20
-11.1508002797165
 30
0.0
 41
1.0
 10
-5.68216995024297
 20
-11.2010794596698
 30
0.0
 41
1.0
 10
-5.68738581544047
 20
-11.251527568035
 30
0.0
 41
1.0
 10
-5.69207742096699
 20
-11.3021517242869
 30
0.0
 41
1.0
 10
-5.696217371037701
 20
-11.3529596545589
 30
0.0
 41
1.0
 10
-5.6997943179527
 20
-11.4039527670237
 30
0.0
 41
1.0
 10
-5.70281624997832
 20
-11.455124819245
 30
0.0
 41
1.0
 10
-5.705301838304449
 20
-11.5064653802514
 30
0.0
 41
1.0
 10
-5.707275019462791
 20
-11.5579619937263
 30
0.0
 41
1.0
 10
-5.70875878409958
 20
-11.6096026606333
 30
0.0
 41
1.0
 10
-5.709768003051639
 20
-11.661378707546
 30
0.0
 41
1.0
 10
-5.71030883558232
 20
-11.7132850176173
 30
0.0
 41
1.0
 10
-5.71038233146593
 20
-11.765318581113
 30
0.0
 41
1.0
 10
-5.709986839876491
 20
-11.8174775244499
 30
0.0
 41
1.0
 10
-5.70912069151626
 20
-11.8697600302622
 30
0.0
 41
1.0
 10
-5.70778531838817
 20
-11.9221630820038
 30
0.0
 41
1.0
 10
-5.705985369620629
 20
-11.974682414889
 30
0.0
 41
1.0
 10
-5.703727243009721
 20
-12.0273131031154
 30
0.0
 41
1.0
 10
-5.70101808289063
 20
-12.0800499604441
 30
0.0
 41
1.0
 10
-5.69786467962644
 20
-12.1328879803683
 30
0.0
 41
1.0
 10
-5.69427218617745
 20
-12.1858228509317
 30
0.0
 41
1.0
 10
-5.690244113581859
 20
-12.2388509528471
 30
0.0
 41
1.0
 10
-5.6857829616109
 20
-12.2919691014119
 30
0.0
 41
1.0
 10
-5.68089066640379
 20
-12.3451743626871
 30
0.0
 41
1.0
 10
-5.675569086143049
 20
-12.3984638551417
 30
0.0
 41
1.0
 10
-5.66982057473895
 20
-12.451834515276
 30
0.0
 41
1.0
 10
-5.66364800604897
 20
-12.5052830899669
 30
0.0
 41
1.0
 10
-5.657054507952379
 20
-12.5588062483353
 30
0.0
 41
1.0
 10
-5.65004328371796
 20
-12.612400658905
 30
0.0
 41
1.0
 10
-5.64261741705283
 20
-12.6660630725029
 30
0.0
 41
1.0
 10
-5.63477964559221
 20
-12.7197904224269
 30
0.0
 41
1.0
 10
-5.62653234504832
 20
-12.7735798226994
 30
0.0
 41
1.0
 10
-5.617877649477671
 20
-12.8274285018605
 30
0.0
 41
1.0
 10
-5.60881753630267
 20
-12.8813337533652
 30
0.0
 41
1.0
 10
-5.599353920104411
 20
-12.9352928849482
 30
0.0
 41
1.0
 10
-5.58948876668852
 20
-12.9893031528332
 30
0.0
 41
1.0
 10
-5.57922411305016
 20
-13.0433617653043
 30
0.0
 41
1.0
 10
-5.5685620063703
 20
-13.0974659436477
 30
0.0
 41
1.0
 10
-5.55750446725586
 20
-13.1516129698765
 30
0.0
 41
1.0
 10
-5.546053449518941
 20
-13.2058002319599
 30
0.0
 41
1.0
 10
-5.534210795545819
 20
-13.2600252885241
 30
0.0
 41
1.0
 10
-5.521978228732401
 20
-13.314285856562
 30
0.0
 41
1.0
 10
-5.50935739353642
 20
-13.3685797048412
 30
0.0
 41
1.0
 10
-5.49634988738092
 20
-13.4229045658772
 30
0.0
 41
1.0
 10
-5.48295729510779
 20
-13.4772580515969
 30
0.0
 41
1.0
 10
-5.469181233648531
 20
-13.5316375395282
 30
0.0
 41
1.0
 10
-5.45502336716312
 20
-13.5860401620755
 30
0.0
 41
1.0
 10
-5.440485353784189
 20
-13.6404630200652
 30
0.0
 41
1.0
 10
-5.42556880908818
 20
-13.6949033529425
 30
0.0
 41
1.0
 10
-5.410275265322249
 20
-13.7493587192799
 30
0.0
 41
1.0
 10
-5.394606135850689
 20
-13.8038271895408
 30
0.0
 41
1.0
 10
-5.37856267794109
 20
-13.8583074848768
 30
0.0
 41
1.0
 10
-5.36214594559189
 20
-13.9127988247237
 30
0.0
 41
1.0
 10
-5.34871458551503
 20
-13.9564004154475
 30
0.0
 41
1.0
 10
-5.33847368739898
 20
-13.9891063374708
 30
0.0
 41
1.0
 10
-5.33157205645281
 20
-14.010912386599
 30
0.0
 41
1.0
 10
-5.328102649595531
 20
-14.0218159364389
 30
0.0
 41
1.0
  0
ARC
  5
100000C3
102
{ACAD_XDICTIONARY
360
100000C4
102
}
330
1F
100
AcDbEntity
  8
VISIBLE
100
AcDbCircle
 10
-0.0000000000000082
 20
-0.0000000000000253
 30
0.0
 40
15.0
100
AcDbArc
 50
249.1938781419726
 51
254.8061218580273
  0
SPLINE
  5
100000C9
102
{ACAD_XDICTIONARY
360
100000CA
102
}
330
1F
100
AcDbEntity
  8
VISIBLE
100
AcDbSpline
210
0.0
220
0.0
230
1.0
 70
    12
 71
     5
 72
    81
 73
    75
 74
     0
 42
0.0000000001
 43
0.00000001
 40
-1.0
 40
-1.0
 40
-1.0
 40
-1.0
 40
-1.0
 40
-1.0
 40
-0.985714285714284
 40
-0.97142857142857
 40
-0.957142857142856
 40
-0.9428571428571411
 40
-0.928571428571427
 40
-0.914285714285713
 40
-0.9
 40
-0.885714285714284
 40
-0.87142857142857
 40
-0.857142857142856
 40
-0.842857142857142
 40
-0.8285714285714281
 40
-0.8142857142857131
 40
-0.8
 40
-0.7857142857142849
 40
-0.7714285714285709
 40
-0.7571428571428559
 40
-0.742857142857142
 40
-0.728571428571428
 40
-0.714285714285714
 40
-0.7
 40
-0.6857142857142849
 40
-0.6714285714285709
 40
-0.6571428571428569
 40
-0.642857142857142
 40
-0.628571428571428
 40
-0.614285714285714
 40
-0.6
 40
-0.585714285714286
 40
-0.571428571428571
 40
-0.5571428571428569
 40
-0.542857142857143
 40
-0.528571428571429
 40
-0.514285714285714
 40
-0.5
 40
-0.485714285714286
 40
-0.471428571428572
 40
-0.457142857142857
 40
-0.442857142857143
 40
-0.428571428571429
 40
-0.414285714285714
 40
-0.4
 40
-0.385714285714286
 40
-0.371428571428571
 40
-0.357142857142857
 40
-0.342857142857143
 40
-0.328571428571429
 40
-0.314285714285714
 40
-0.3
 40
-0.285714285714286
 40
-0.271428571428571
 40
-0.257142857142857
 40
-0.242857142857143
 40
-0.228571428571429
 40
-0.214285714285714
 40
-0.2
 40
-0.185714285714286
 40
-0.171428571428571
 40
-0.157142857142857
 40
-0.142857142857143
 40
-0.128571428571429
 40
-0.114285714285714
 40
-0.1
 40
-0.0857142857142857
 40
-0.0714285714285714
 40
-0.0571428571428571
 40
-0.0428571428571429
 40
-0.0285714285714286
 40
-0.0142857142857143
 40
0.0
 40
0.0
 40
0.0
 40
0.0
 40
0.0
 40
0.0
 10
-3.93129102650142
 20
-14.4756675447093
 30
0.0
 41
1.0
 10
-3.922075271599951
 20
-14.4688856537747
 30
0.0
 41
1.0
 10
-3.90367446078726
 20
-14.4553008663367
 30
0.0
 41
1.0
 10
-3.8761653415458
 20
-14.434860668486
 30
0.0
 41
1.0
 10
-3.83967077098206
 20
-14.40748099598
 30
0.0
 41
1.0
 10
-3.79436014957982
 20
-14.3730460891634
 30
0.0
 41
1.0
 10
-3.74935800534334
 20
-14.338400712333
 30
0.0
 41
1.0
 10
-3.70466564977953
 20
-14.303544877454
 30
0.0
 41
1.0
 10
-3.66028485172739
 20
-14.268478880133
 30
0.0
 41
1.0
 10
-3.61621788877577
 20
-14.2332034506433
 30
0.0
 41
1.0
 10
-3.57246743557382
 20
-14.197719663509
 30
0.0
 41
1.0
 10
-3.5290364217637
 20
-14.1620288024537
 30
0.0
 41
1.0
 10
-3.48592789289433
 20
-14.1261322383322
 30
0.0
 41
1.0
 10
-3.44314488082992
 20
-14.0900313129096
 30
0.0
 41
1.0
 10
-3.40069023514592
 20
-14.0537271974018
 30
0.0
 41
1.0
 10
-3.35856664168042
 20
-14.0172208922537
 30
0.0
 41
1.0
 10
-3.31677672556985
 20
-13.9805132929572
 30
0.0
 41
1.0
 10
-3.27532312869396
 20
-13.9436052380293
 30
0.0
 41
1.0
 10
-3.23420858722713
 20
-13.9064975614746
 30
0.0
 41
1.0
 10
-3.19343602669483
 20
-13.8691911554788
 30
0.0
 41
1.0
 10
-3.15300856307734
 20
-13.8316869847971
 30
0.0
 41
1.0
 10
-3.11292942867258
 20
-13.7939860606441
 30
0.0
 41
1.0
 10
-3.07320191297185
 20
-13.7560894277438
 30
0.0
 41
1.0
 10
-3.03382930486821
 20
-13.7179981473261
 30
0.0
 41
1.0
 10
-2.99481480748309
 20
-13.6797132836812
 30
0.0
 41
1.0
 10
-2.95616155221898
 20
-13.6412358895347
 30
0.0
 41
1.0
 10
-2.91787272971145
 20
-13.602566992228
 30
0.0
 41
1.0
 10
-2.8799516954717
 20
-13.5637075795521
 30
0.0
 41
1.0
 10
-2.84240206782634
 20
-13.5246585899035
 30
0.0
 41
1.0
 10
-2.80522786413116
 20
-13.4854208951546
 30
0.0
 41
1.0
 10
-2.76843348897358
 20
-13.4459953113841
 30
0.0
 41
1.0
 10
-2.73202349204509
 20
-13.4063826509788
 30
0.0
 41
1.0
 10
-2.69600236169475
 20
-13.3665837701551
 30
0.0
 41
1.0
 10
-2.66037433505994
 20
-13.3265996115339
 30
0.0
 41
1.0
 10
-2.62514311717394
 20
-13.2864312699447
 30
0.0
 41
1.0
 10
-2.59031190505949
 20
-13.2460799843828
 30
0.0
 41
1.0
 10
-2.55588398961212
 20
-13.2055469904206
 30
0.0
 41
1.0
 10
-2.52186326511055
 20
-13.1648333952081
 30
0.0
 41
1.0
 10
-2.4882546994079
 20
-13.1239400630735
 30
0.0
 41
1.0
 10
-2.45506499584101
 20
-13.0828674536287
 30
0.0
 41
1.0
 10
-2.42230259067987
 20
-13.0416156259477
 30
0.0
 41
1.0
 10
-2.38997631220778
 20
-13.0001845764508
 30
0.0
 41
1.0
 10
-2.35809423166446
 20
-12.9585745296657
 30
0.0
 41
1.0
 10
-2.32666261705202
 20
-12.9167862031874
 30
0.0
 41
1.0
 10
-2.29568439996643
 20
-12.8748211957429
 30
0.0
 41
1.0
 10
-2.26515929813829
 20
-12.8326819588005
 30
0.0
 41
1.0
 10
-2.2350870772859
 20
-12.790370978452
 30
0.0
 41
1.0
 10
-2.20547035577187
 20
-12.7478900725818
 30
0.0
 41
1.0
 10
-2.17631712415221
 20
-12.7052397604818
 30
0.0
 41
1.0
 10
-2.14764451129876
 20
-12.6624183182429
 30
0.0
 41
1.0
 10
-2.11947816989164
 20
-12.6194219397266
 30
0.0
 41
1.0
 10
-2.091844786631
 20
-12.5762466327644
 30
0.0
 41
1.0
 10
-2.06476559799786
 20
-12.5328898615394
 30
0.0
 41
1.0
 10
-2.0382507358476
 20
-12.4893519809036
 30
0.0
 41
1.0
 10
-2.01229019199479
 20
-12.4456385216318
 30
0.0
 41
1.0
 10
-1.98685726147685
 20
-12.4017593359893
 30
0.0
 41
1.0
 10
-1.96192653820282
 20
-12.3577240824266
 30
0.0
 41
1.0
 10
-1.9374896335899
 20
-12.3135382823648
 30
0.0
 41
1.0
 10
-1.91356870356967
 20
-12.2691999314574
 30
0.0
 41
1.0
 10
-1.89023863200067
 20
-12.2246939262317
 30
0.0
 41
1.0
 10
-1.86761373228674
 20
-12.1799954478692
 30
0.0
 41
1.0
 10
-1.84580694092024
 20
-12.1350803030379
 30
0.0
 41
1.0
 10
-1.82489352683186
 20
-12.0899341019098
 30
0.0
 41
1.0
 10
-1.80488022342791
 20
-12.0445601203024
 30
0.0
 41
1.0
 10
-1.78565355105907
 20
-11.9989922846828
 30
0.0
 41
1.0
 10
-1.76703243763688
 20
-11.9532824368595
 30
0.0
 41
1.0
 10
-1.74886871214285
 20
-11.9074757652746
 30
0.0
 41
1.0
 10
-1.73113708292622
 20
-11.8615888819459
 30
0.0
 41
1.0
 10
-1.71401929188522
 20
-11.8155892225626
 30
0.0
 41
1.0
 10
-1.69801794302812
 20
-11.7693674233805
 30
0.0
 41
1.0
 10
-1.68382800518381
 20
-11.7227672512982
 30
0.0
 41
1.0
 10
-1.67449162416431
 20
-11.6850555316198
 30
0.0
 41
1.0
 10
-1.66887494207354
 20
-11.6564712811873
 30
0.0
 41
1.0
 10
-1.66577854716005
 20
-11.6372741555826
 30
0.0
 41
1.0
 10
-1.66439236753393
 20
-11.6276403524346
 30
0.0
 41
1.0
  0
LINE
  5
100000CD
102
{ACAD_XDICTIONARY
360
100000CE
102
}
330
1F
100
AcDbEntity
  8
VISIBLE
100
AcDbLine
 10
-1.66439236753394
 20
-11.6276403524346
 30
0.0
 11
-1.402823025438696
 21
-9.80976083392358
 31
0.0
  0
ARC
  5
100000D1
102
{ACAD_XDICTIONARY
360
100000D2
102
}
330
1F
100
AcDbEntity
  8
VISIBLE
100
AcDbCircle
 10
-0.9356344656347609
 20
-9.8769832229642
 30
0.0
 40
0.472
100
AcDbArc
 50
84.58858926829238
 51
171.8120762105379
  0
ARC
  5
100000D7
102
{ACAD_XDICTIONARY
360
100000D8
102
}
330
1F
100
AcDbEntity
  8
VISIBLE
100
AcDbCircle
 10
0.0
 20
0.0
 30
0.0
 40
9.4492
100
AcDbArc
 50
264.5885892682924
 51
275.4114107317076
  0
ARC
  5
100000DD
102
{ACAD_XDICTIONARY
360
100000DE
102
}
330
1F
100
AcDbEntity
  8
VISIBLE
100
AcDbCircle
 10
0.9356344656347599
 20
-9.8769832229642
 30
0.0
 40
0.472
100
AcDbArc
 50
8.187923789462124
 51
95.41141073170762
  0
LINE
  5
100000E3
102
{ACAD_XDICTIONARY
360
100000E4
102
}
330
1F
100
AcDbEntity
  8
VISIBLE
100
AcDbLine
 10
1.402823025438696
 20
-9.80976083392358
 30
0.0
 11
1.66439236753394
 21
-11.6276403524346
 31
0.0
  0
SPLINE
  5
100000E7
102
{ACAD_XDICTIONARY
360
100000E8
102
}
330
1F
100
AcDbEntity
  8
VISIBLE
100
AcDbSpline
210
0.0
220
0.0
230
1.0
 70
    12
 71
     5
 72
    81
 73
    75
 74
     0
 42
0.0000000001
 43
0.00000001
 40
0.0
 40
0.0
 40
0.0
 40
0.0
 40
0.0
 40
0.0
 40
0.0142857142857143
 40
0.0285714285714286
 40
0.0428571428571429
 40
0.0571428571428571
 40
0.0714285714285714
 40
0.0857142857142857
 40
0.1
 40
0.114285714285714
 40
0.128571428571429
 40
0.142857142857143
 40
0.157142857142857
 40
0.171428571428571
 40
0.185714285714286
 40
0.2
 40
0.214285714285714
 40
0.228571428571429
 40
0.242857142857143
 40
0.257142857142857
 40
0.271428571428571
 40
0.285714285714286
 40
0.3
 40
0.314285714285714
 40
0.328571428571429
 40
0.342857142857143
 40
0.357142857142857
 40
0.371428571428571
 40
0.385714285714286
 40
0.4
 40
0.414285714285714
 40
0.428571428571429
 40
0.442857142857143
 40
0.457142857142857
 40
0.471428571428572
 40
0.485714285714286
 40
0.5
 40
0.514285714285714
 40
0.528571428571429
 40
0.542857142857143
 40
0.5571428571428569
 40
0.571428571428571
 40
0.585714285714286
 40
0.6
 40
0.614285714285714
 40
0.628571428571428
 40
0.642857142857142
 40
0.6571428571428569
 40
0.6714285714285709
 40
0.6857142857142849
 40
0.7
 40
0.714285714285714
 40
0.728571428571428
 40
0.742857142857142
 40
0.7571428571428559
 40
0.7714285714285709
 40
0.7857142857142849
 40
0.8
 40
0.8142857142857131
 40
0.8285714285714281
 40
0.842857142857142
 40
0.857142857142856
 40
0.87142857142857
 40
0.885714285714284
 40
0.9
 40
0.914285714285713
 40
0.928571428571427
 40
0.9428571428571411
 40
0.957142857142856
 40
0.97142857142857
 40
0.985714285714284
 40
1.0
 40
1.0
 40
1.0
 40
1.0
 40
1.0
 40
1.0
 10
1.66439236753393
 20
-11.6276403524346
 30
0.0
 41
1.0
 10
1.66577854716005
 20
-11.6372741555826
 30
0.0
 41
1.0
 10
1.66887494207353
 20
-11.6564712811873
 30
0.0
 41
1.0
 10
1.67449162416431
 20
-11.6850555316198
 30
0.0
 41
1.0
 10
1.68382800518381
 20
-11.7227672512982
 30
0.0
 41
1.0
 10
1.69801794302812
 20
-11.7693674233805
 30
0.0
 41
1.0
 10
1.71401929188521
 20
-11.8155892225626
 30
0.0
 41
1.0
 10
1.73113708292622
 20
-11.8615888819459
 30
0.0
 41
1.0
 10
1.74886871214285
 20
-11.9074757652746
 30
0.0
 41
1.0
 10
1.76703243763687
 20
-11.9532824368595
 30
0.0
 41
1.0
 10
1.78565355105906
 20
-11.9989922846828
 30
0.0
 41
1.0
 10
1.80488022342791
 20
-12.0445601203024
 30
0.0
 41
1.0
 10
1.82489352683186
 20
-12.0899341019098
 30
0.0
 41
1.0
 10
1.84580694092024
 20
-12.1350803030379
 30
0.0
 41
1.0
 10
1.86761373228674
 20
-12.1799954478692
 30
0.0
 41
1.0
 10
1.89023863200067
 20
-12.2246939262317
 30
0.0
 41
1.0
 10
1.91356870356967
 20
-12.2691999314574
 30
0.0
 41
1.0
 10
1.9374896335899
 20
-12.3135382823648
 30
0.0
 41
1.0
 10
1.96192653820281
 20
-12.3577240824266
 30
0.0
 41
1.0
 10
1.98685726147685
 20
-12.4017593359893
 30
0.0
 41
1.0
 10
2.01229019199479
 20
-12.4456385216318
 30
0.0
 41
1.0
 10
2.03825073584759
 20
-12.4893519809036
 30
0.0
 41
1.0
 10
2.06476559799786
 20
-12.5328898615394
 30
0.0
 41
1.0
 10
2.091844786631
 20
-12.5762466327644
 30
0.0
 41
1.0
 10
2.11947816989163
 20
-12.6194219397266
 30
0.0
 41
1.0
 10
2.14764451129875
 20
-12.6624183182429
 30
0.0
 41
1.0
 10
2.17631712415221
 20
-12.7052397604818
 30
0.0
 41
1.0
 10
2.20547035577187
 20
-12.7478900725818
 30
0.0
 41
1.0
 10
2.2350870772859
 20
-12.790370978452
 30
0.0
 41
1.0
 10
2.26515929813829
 20
-12.8326819588005
 30
0.0
 41
1.0
 10
2.29568439996643
 20
-12.8748211957429
 30
0.0
 41
1.0
 10
2.32666261705202
 20
-12.9167862031874
 30
0.0
 41
1.0
 10
2.35809423166446
 20
-12.9585745296657
 30
0.0
 41
1.0
 10
2.38997631220778
 20
-13.0001845764508
 30
0.0
 41
1.0
 10
2.42230259067987
 20
-13.0416156259477
 30
0.0
 41
1.0
 10
2.45506499584101
 20
-13.0828674536287
 30
0.0
 41
1.0
 10
2.4882546994079
 20
-13.1239400630735
 30
0.0
 41
1.0
 10
2.52186326511055
 20
-13.1648333952081
 30
0.0
 41
1.0
 10
2.55588398961212
 20
-13.2055469904206
 30
0.0
 41
1.0
 10
2.59031190505949
 20
-13.2460799843828
 30
0.0
 41
1.0
 10
2.62514311717394
 20
-13.2864312699447
 30
0.0
 41
1.0
 10
2.66037433505993
 20
-13.3265996115339
 30
0.0
 41
1.0
 10
2.69600236169475
 20
-13.3665837701551
 30
0.0
 41
1.0
 10
2.73202349204509
 20
-13.4063826509788
 30
0.0
 41
1.0
 10
2.76843348897358
 20
-13.4459953113841
 30
0.0
 41
1.0
 10
2.80522786413116
 20
-13.4854208951546
 30
0.0
 41
1.0
 10
2.84240206782634
 20
-13.5246585899035
 30
0.0
 41
1.0
 10
2.8799516954717
 20
-13.5637075795521
 30
0.0
 41
1.0
 10
2.91787272971144
 20
-13.602566992228
 30
0.0
 41
1.0
 10
2.95616155221898
 20
-13.6412358895347
 30
0.0
 41
1.0
 10
2.99481480748309
 20
-13.6797132836812
 30
0.0
 41
1.0
 10
3.03382930486821
 20
-13.7179981473261
 30
0.0
 41
1.0
 10
3.07320191297185
 20
-13.7560894277438
 30
0.0
 41
1.0
 10
3.11292942867258
 20
-13.7939860606441
 30
0.0
 41
1.0
 10
3.15300856307733
 20
-13.8316869847971
 30
0.0
 41
1.0
 10
3.19343602669483
 20
-13.8691911554788
 30
0.0
 41
1.0
 10
3.23420858722713
 20
-13.9064975614746
 30
0.0
 41
1.0
 10
3.27532312869396
 20
-13.9436052380293
 30
0.0
 41
1.0
 10
3.31677672556985
 20
-13.9805132929572
 30
0.0
 41
1.0
 10
3.35856664168042
 20
-14.0172208922537
 30
0.0
 41
1.0
 10
3.40069023514591
 20
-14.0537271974018
 30
0.0
 41
1.0
 10
3.44314488082992
 20
-14.0900313129096
 30
0.0
 41
1.0
 10
3.48592789289433
 20
-14.1261322383322
 30
0.0
 41
1.0
 10
3.5290364217637
 20
-14.1620288024537
 30
0.0
 41
1.0
 10
3.57246743557382
 20
-14.197719663509
 30
0.0
 41
1.0
 10
3.61621788877577
 20
-14.2332034506433
 30
0.0
 41
1.0
 10
3.66028485172739
 20
-14.268478880133
 30
0.0
 41
1.0
 10
3.70466564977953
 20
-14.303544877454
 30
0.0
 41
1.0
 10
3.74935800534334
 20
-14.338400712333
 30
0.0
 41
1.0
 10
3.79436014957982
 20
-14.3730460891634
 30
0.0
 41
1.0
 10
3.83967077098206
 20
-14.40748099598
 30
0.0
 41
1.0
 10
3.8761653415458
 20
-14.434860668486
 30
0.0
 41
1.0
 10
3.90367446078726
 20
-14.4553008663367
 30
0.0
 41
1.0
 10
3.922075271599951
 20
-14.4688856537747
 30
0.0
 41
1.0
 10
3.93129102650142
 20
-14.4756675447093
 30
0.0
 41
1.0
  0
ARC
  5
100000EB
102
{ACAD_XDICTIONARY
360
100000EC
102
}
330
1F
100
AcDbEntity
  8
VISIBLE
100
AcDbCircle
 10
0.0000000000000082
 20
-0.0000000000000253
 30
0.0
 40
15.0
100
AcDbArc
 50
285.1938781419727
 51
290.8061218580273
  0
SPLINE
  5
100000F1
102
{ACAD_XDICTIONARY
360
100000F2
102
}
330
1F
100
AcDbEntity
  8
VISIBLE
100
AcDbSpline
210
0.0
220
0.0
230
1.0
 70
    12
 71
     5
 72
    81
 73
    75
 74
     0
 42
0.0000000001
 43
0.00000001
 40
-1.0
 40
-1.0
 40
-1.0
 40
-1.0
 40
-1.0
 40
-1.0
 40
-0.985714285714284
 40
-0.97142857142857
 40
-0.957142857142856
 40
-0.9428571428571411
 40
-0.928571428571427
 40
-0.914285714285713
 40
-0.9
 40
-0.885714285714284
 40
-0.87142857142857
 40
-0.857142857142856
 40
-0.842857142857142
 40
-0.8285714285714281
 40
-0.8142857142857131
 40
-0.8
 40
-0.7857142857142849
 40
-0.7714285714285709
 40
-0.7571428571428559
 40
-0.742857142857142
 40
-0.728571428571428
 40
-0.714285714285714
 40
-0.7
 40
-0.6857142857142849
 40
-0.6714285714285709
 40
-0.6571428571428569
 40
-0.642857142857142
 40
-0.628571428571428
 40
-0.614285714285714
 40
-0.6
 40
-0.585714285714286
 40
-0.571428571428571
 40
-0.5571428571428569
 40
-0.542857142857143
 40
-0.528571428571429
 40
-0.514285714285714
 40
-0.5
 40
-0.485714285714286
 40
-0.471428571428572
 40
-0.457142857142857
 40
-0.442857142857143
 40
-0.428571428571429
 40
-0.414285714285714
 40
-0.4
 40
-0.385714285714286
 40
-0.371428571428571
 40
-0.357142857142857
 40
-0.342857142857143
 40
-0.328571428571429
 40
-0.314285714285714
 40
-0.3
 40
-0.285714285714286
 40
-0.271428571428571
 40
-0.257142857142857
 40
-0.242857142857143
 40
-0.228571428571429
 40
-0.214285714285714
 40
-0.2
 40
-0.185714285714286
 40
-0.171428571428571
 40
-0.157142857142857
 40
-0.142857142857143
 40
-0.128571428571429
 40
-0.114285714285714
 40
-0.1
 40
-0.0857142857142857
 40
-0.0714285714285714
 40
-0.0571428571428571
 40
-0.0428571428571429
 40
-0.0285714285714286
 40
-0.0142857142857143
 40
0.0
 40
0.0
 40
0.0
 40
0.0
 40
0.0
 40
0.0
 10
5.328102649595531
 20
-14.0218159364389
 30
0.0
 41
1.0
 10
5.33157205645281
 20
-14.010912386599
 30
0.0
 41
1.0
 10
5.33847368739898
 20
-13.9891063374708
 30
0.0
 41
1.0
 10
5.348714585515021
 20
-13.9564004154475
 30
0.0
 41
1.0
 10
5.36214594559189
 20
-13.9127988247237
 30
0.0
 41
1.0
 10
5.37856267794109
 20
-13.8583074848768
 30
0.0
 41
1.0
 10
5.394606135850689
 20
-13.8038271895408
 30
0.0
 41
1.0
 10
5.410275265322249
 20
-13.7493587192799
 30
0.0
 41
1.0
 10
5.42556880908817
 20
-13.6949033529425
 30
0.0
 41
1.0
 10
5.440485353784189
 20
-13.6404630200652
 30
0.0
 41
1.0
 10
5.45502336716312
 20
-13.5860401620755
 30
0.0
 41
1.0
 10
5.469181233648531
 20
-13.5316375395282
 30
0.0
 41
1.0
 10
5.48295729510778
 20
-13.4772580515969
 30
0.0
 41
1.0
 10
5.49634988738092
 20
-13.4229045658772
 30
0.0
 41
1.0
 10
5.50935739353642
 20
-13.3685797048412
 30
0.0
 41
1.0
 10
5.521978228732401
 20
-13.314285856562
 30
0.0
 41
1.0
 10
5.53421079554581
 20
-13.2600252885241
 30
0.0
 41
1.0
 10
5.546053449518941
 20
-13.2058002319599
 30
0.0
 41
1.0
 10
5.55750446725586
 20
-13.1516129698765
 30
0.0
 41
1.0
 10
5.5685620063703
 20
-13.0974659436477
 30
0.0
 41
1.0
 10
5.57922411305016
 20
-13.0433617653043
 30
0.0
 41
1.0
 10
5.589488766688509
 20
-12.9893031528332
 30
0.0
 41
1.0
 10
5.599353920104411
 20
-12.9352928849482
 30
0.0
 41
1.0
 10
5.60881753630267
 20
-12.8813337533652
 30
0.0
 41
1.0
 10
5.61787764947766
 20
-12.8274285018605
 30
0.0
 41
1.0
 10
5.62653234504832
 20
-12.7735798226994
 30
0.0
 41
1.0
 10
5.634779645592201
 20
-12.7197904224269
 30
0.0
 41
1.0
 10
5.64261741705283
 20
-12.6660630725029
 30
0.0
 41
1.0
 10
5.65004328371796
 20
-12.612400658905
 30
0.0
 41
1.0
 10
5.657054507952379
 20
-12.5588062483353
 30
0.0
 41
1.0
 10
5.66364800604897
 20
-12.5052830899669
 30
0.0
 41
1.0
 10
5.66982057473895
 20
-12.451834515276
 30
0.0
 41
1.0
 10
5.675569086143049
 20
-12.3984638551417
 30
0.0
 41
1.0
 10
5.68089066640378
 20
-12.3451743626871
 30
0.0
 41
1.0
 10
5.68578296161089
 20
-12.2919691014119
 30
0.0
 41
1.0
 10
5.69024411358185
 20
-12.2388509528471
 30
0.0
 41
1.0
 10
5.69427218617745
 20
-12.1858228509317
 30
0.0
 41
1.0
 10
5.69786467962644
 20
-12.1328879803683
 30
0.0
 41
1.0
 10
5.70101808289062
 20
-12.0800499604441
 30
0.0
 41
1.0
 10
5.703727243009721
 20
-12.0273131031154
 30
0.0
 41
1.0
 10
5.70598536962062
 20
-11.974682414889
 30
0.0
 41
1.0
 10
5.70778531838817
 20
-11.9221630820038
 30
0.0
 41
1.0
 10
5.70912069151626
 20
-11.8697600302622
 30
0.0
 41
1.0
 10
5.709986839876491
 20
-11.8174775244499
 30
0.0
 41
1.0
 10
5.71038233146593
 20
-11.765318581113
 30
0.0
 41
1.0
 10
5.71030883558232
 20
-11.7132850176173
 30
0.0
 41
1.0
 10
5.709768003051639
 20
-11.661378707546
 30
0.0
 41
1.0
 10
5.70875878409958
 20
-11.6096026606333
 30
0.0
 41
1.0
 10
5.707275019462781
 20
-11.5579619937263
 30
0.0
 41
1.0
 10
5.705301838304449
 20
-11.5064653802514
 30
0.0
 41
1.0
 10
5.70281624997831
 20
-11.455124819245
 30
0.0
 41
1.0
 10
5.6997943179527
 20
-11.4039527670237
 30
0.0
 41
1.0
 10
5.69621737103769
 20
-11.3529596545589
 30
0.0
 41
1.0
 10
5.69207742096699
 20
-11.3021517242869
 30
0.0
 41
1.0
 10
5.68738581544047
 20
-11.251527568035
 30
0.0
 41
1.0
 10
5.68216995024297
 20
-11.2010794596698
 30
0.0
 41
1.0
 10
5.67645605642863
 20
-11.1508002797165
 30
0.0
 41
1.0
 10
5.6702541659133
 20
-11.1006895644133
 30
0.0
 41
1.0
 10
5.66354517604658
 20
-11.0507587151397
 30
0.0
 41
1.0
 10
5.656259626915751
 20
-11.0010395285571
 30
0.0
 41
1.0
 10
5.64829044889896
 20
-10.9515791175527
 30
0.0
 41
1.0
 10
5.63953205397086
 20
-10.9024242917144
 30
0.0
 41
1.0
 10
5.62991509015861
 20
-10.853607651394
 30
0.0
 41
1.0
 10
5.61943603549937
 20
-10.8051358045807
 30
0.0
 41
1.0
 10
5.60820663843498
 20
-10.7569694966985
 30
0.0
 41
1.0
 10
5.59640386121262
 20
-10.7090442371483
 30
0.0
 41
1.0
 10
5.58417413780424
 20
-10.6613094914083
 30
0.0
 41
1.0
 10
5.57154769388417
 20
-10.6137638328238
 30
0.0
 41
1.0
 10
5.55835835634656
 20
-10.5664877415216
 30
0.0
 41
1.0
 10
5.54413522761118
 20
-10.5196881635976
 30
0.0
 41
1.0
 10
5.52822423457209
 20
-10.4736471962464
 30
0.0
 41
1.0
 10
5.51361113281729
 20
-10.4376499870665
 30
0.0
 41
1.0
 10
5.50135372322864
 20
-10.4112234397953
 30
0.0
 41
1.0
 10
5.492574972018089
 20
-10.3938726236725
 30
0.0
 41
1.0
 10
5.48803380747899
 20
-10.3852639372641
 30
0.0
 41
1.0
  0
LINE
  5
100000F5
102
{ACAD_XDICTIONARY
360
100000F6
102
}
330
1F
100
AcDbEntity
  8
VISIBLE
100
AcDbLine
 10
5.488033807479
 20
-10.3852639372641
 30
0.0
 11
4.631125079016201
 21
-8.760821911327099
 31
0.0
  0
ARC
  5
100000F9
102
{ACAD_XDICTIONARY
360
100000FA
102
}
330
1F
100
AcDbEntity
  8
VISIBLE
100
AcDbCircle
 10
5.04860089237709
 20
-8.54059942097095
 30
0.0
 40
0.472
100
AcDbArc
 50
120.5885892682916
 51
207.8120762105355
  0
ARC
  5
100000FF
102
{ACAD_XDICTIONARY
360
10000100
102
}
330
1F
100
AcDbEntity
  8
VISIBLE
100
AcDbCircle
 10
0.0
 20
0.0
 30
0.0
 40
9.4492
100
AcDbArc
 50
300.5885892682924
 51
311.4114107317076
  0
ARC
  5
10000105
102
{ACAD_XDICTIONARY
360
10000106
102
}
330
1F
100
AcDbEntity
  8
VISIBLE
100
AcDbCircle
 10
6.562489258819981
 20
-7.44069514009762
 30
0.0
 40
0.472
100
AcDbArc
 50
44.18792378946274
 51
131.4114107317079
  0
LINE
  5
1000010B
102
{ACAD_XDICTIONARY
360
1000010C
102
}
330
1F
100
AcDbEntity
  8
VISIBLE
100
AcDbLine
 10
6.900940414376969
 20
-7.111704539468761
 30
0.0
 11
8.1810772287648
 21
-8.42865336193487
 31
0.0
  0
SPLINE
  5
1000010F
102
{ACAD_XDICTIONARY
360
10000110
102
}
330
1F
100
AcDbEntity
  8
VISIBLE
100
AcDbSpline
210
0.0
220
0.0
230
1.0
 70
    12
 71
     5
 72
    81
 73
    75
 74
     0
 42
0.0000000001
 43
0.00000001
 40
0.0
 40
0.0
 40
0.0
 40
0.0
 40
0.0
 40
0.0
 40
0.0142857142857143
 40
0.0285714285714286
 40
0.0428571428571429
 40
0.0571428571428571
 40
0.0714285714285714
 40
0.0857142857142857
 40
0.1
 40
0.114285714285714
 40
0.128571428571429
 40
0.142857142857143
 40
0.157142857142857
 40
0.171428571428571
 40
0.185714285714286
 40
0.2
 40
0.214285714285714
 40
0.228571428571429
 40
0.242857142857143
 40
0.257142857142857
 40
0.271428571428571
 40
0.285714285714286
 40
0.3
 40
0.314285714285714
 40
0.328571428571429
 40
0.342857142857143
 40
0.357142857142857
 40
0.371428571428571
 40
0.385714285714286
 40
0.4
 40
0.414285714285714
 40
0.428571428571429
 40
0.442857142857143
 40
0.457142857142857
 40
0.471428571428572
 40
0.485714285714286
 40
0.5
 40
0.514285714285714
 40
0.528571428571429
 40
0.542857142857143
 40
0.5571428571428569
 40
0.571428571428571
 40
0.585714285714286
 40
0.6
 40
0.614285714285714
 40
0.628571428571428
 40
0.642857142857142
 40
0.6571428571428569
 40
0.6714285714285709
 40
0.6857142857142849
 40
0.7
 40
0.714285714285714
 40
0.728571428571428
 40
0.742857142857142
 40
0.7571428571428559
 40
0.7714285714285709
 40
0.7857142857142849
 40
0.8
 40
0.8142857142857131
 40
0.8285714285714281
 40
0.842857142857142
 40
0.857142857142856
 40
0.87142857142857
 40
0.885714285714284
 40
0.9
 40
0.914285714285713
 40
0.928571428571427
 40
0.9428571428571411
 40
0.957142857142856
 40
0.97142857142857
 40
0.985714285714284
 40
1.0
 40
1.0
 40
1.0
 40
1.0
 40
1.0
 40
1.0
 10
8.1810772287648
 20
-8.42865336193488
 30
0.0
 41
1.0
 10
8.187861279053479
 20
-8.435632496460821
 30
0.0
 41
1.0
 10
8.201650102476629
 20
-8.44934328205276
 30
0.0
 41
1.0
 10
8.222995494592158
 20
-8.46916702352438
 30
0.0
 41
1.0
 10
8.252715178168428
 20
-8.49418865855825
 30
0.0
 41
1.0
 10
8.29158597293786
 20
-8.523548353517791
 30
0.0
 41
1.0
 10
8.33169982798986
 20
-8.55153721769174
 30
0.0
 41
1.0
 10
8.37258633324414
 20
-8.57869013874251
 30
0.0
 41
1.0
 10
8.41390315591262
 20
-8.60539101702168
 30
0.0
 41
1.0
 10
8.45552240453266
 20
-8.63177302281754
 30
0.0
 41
1.0
 10
8.49745477618049
 20
-8.65780785066609
 30
0.0
 41
1.0
 10
8.53979358262823
 20
-8.68337184961013
 30
0.0
 41
1.0
 10
8.58265484242222
 20
-8.708316647242471
 30
0.0
 41
1.0
 10
8.62611042105028
 20
-8.73254809481037
 30
0.0
 41
1.0
 10
8.67015294559496
 20
-8.75606749991862
 30
0.0
 41
1.0
 10
8.714729980340941
 20
-8.778930746150131
 30
0.0
 41
1.0
 10
8.75976437823039
 20
-8.801223788726311
 30
0.0
 41
1.0
 10
8.805178245912339
 20
-8.82303389822593
 30
0.0
 41
1.0
 10
8.8509198786712
 20
-8.844417309242871
 30
0.0
 41
1.0
 10
8.896972530107039
 20
-8.865388666257209
 30
0.0
 41
1.0
 10
8.94333974131609
 20
-8.885938571660311
 30
0.0
 41
1.0
 10
8.990036389162881
 20
-8.90604427827595
 30
0.0
 41
1.0
 10
9.03707828739974
 20
-8.925682118670869
 30
0.0
 41
1.0
 10
9.08447028191093
 20
-8.94484173569055
 30
0.0
 41
1.0
 10
9.1322039672764
 20
-8.96352879760873
 30
0.0
 41
1.0
 10
9.180263653337999
 20
-8.981757838434849
 30
0.0
 41
1.0
 10
9.228630096639481
 20
-8.9995477739498
 30
0.0
 41
1.0
 10
9.277284780918782
 20
-9.016916761651391
 30
0.0
 41
1.0
 10
9.326214861915888
 20
-9.0338762643097
 30
0.0
 41
1.0
 10
9.375413569902921
 20
-9.05043055853954
 30
0.0
 41
1.0
 10
9.424877718054521
 20
-9.06657971267663
 30
0.0
 41
1.0
 10
9.47460603462044
 20
-9.0823215777231
 30
0.0
 41
1.0
 10
9.524597307024418
 20
-9.097654004485541
 30
0.0
 41
1.0
 10
9.574848223847479
 20
-9.11257742271566
 30
0.0
 41
1.0
 10
9.62535329237759
 20
-9.12709493610605
 30
0.0
 41
1.0
 10
9.67610585087059
 20
-9.141211107165718
 30
0.0
 41
1.0
 10
9.72709875919926
 20
-9.15493112792527
 30
0.0
 41
1.0
 10
9.7783251575551
 20
-9.16825990930807
 30
0.0
 41
1.0
 10
9.82977935267154
 20
-9.181201019602781
 30
0.0
 41
1.0
 10
9.881456817431609
 20
-9.19375667958395
 30
0.0
 41
1.0
 10
9.933353750531179
 20
-9.20592828254803
 30
0.0
 41
1.0
 10
9.985466763328661
 20
-9.217716763235869
 30
0.0
 41
1.0
 10
10.0377925411151
 20
-9.22912299844199
 30
0.0
 41
1.0
 10
10.0903274429311
 20
-9.240148280194632
 30
0.0
 41
1.0
 10
10.1430674868017
 20
-9.25079433642435
 30
0.0
 41
1.0
 10
10.1960085383049
 20
-9.26106311262286
 30
0.0
 41
1.0
 10
10.249146439154
 20
-9.27095662579705
 30
0.0
 41
1.0
 10
10.3024771462839
 20
-9.280476804676999
 30
0.0
 41
1.0
 10
10.3559968971117
 20
-9.289625305245359
 30
0.0
 41
1.0
 10
10.4097022127743
 20
-9.29840349512269
 30
0.0
 41
1.0
 10
10.4635897979968
 20
-9.30681254748909
 30
0.0
 41
1.0
 10
10.5176564676449
 20
-9.31485350661664
 30
0.0
 41
1.0
 10
10.5718990695841
 20
-9.32252736142444
 30
0.0
 41
1.0
 10
10.6263143868605
 20
-9.32983513363121
 30
0.0
 41
1.0
 10
10.6808991349288
 20
-9.33677789784687
 30
0.0
 41
1.0
 10
10.735650038461
 20
-9.34335674238635
 30
0.0
 41
1.0
 10
10.7905638880961
 20
-9.34957274905692
 30
0.0
 41
1.0
 10
10.8456375958844
 20
-9.35542696888245
 30
0.0
 41
1.0
 10
10.9008682706124
 20
-9.360920399650349
 30
0.0
 41
1.0
 10
10.9562532084529
 20
-9.36605397491958
 30
0.0
 41
1.0
 10
11.0117897792124
 20
-9.37082856917366
 30
0.0
 41
1.0
 10
11.0674753327539
 20
-9.37524500096089
 30
0.0
 41
1.0
 10
11.1233071081421
 20
-9.37930403960033
 30
0.0
 41
1.0
 10
11.1792821115985
 20
-9.38300641249682
 30
0.0
 41
1.0
 10
11.2353971016237
 20
-9.38635281622472
 30
0.0
 41
1.0
 10
11.2916488085488
 20
-9.38934393186797
 30
0.0
 41
1.0
 10
11.3480341076895
 20
-9.39198044287274
 30
0.0
 41
1.0
 10
11.4045502036197
 20
-9.394263052050071
 30
0.0
 41
1.0
 10
11.4611948244877
 20
-9.396192507329692
 30
0.0
 41
1.0
 10
11.5179663655194
 20
-9.39776960925826
 30
0.0
 41
1.0
 10
11.5748637586504
 20
-9.39899511904021
 30
0.0
 41
1.0
 10
11.6204818541505
 20
-9.399694769031871
 30
0.0
 41
1.0
 10
11.6547516459677
 20
-9.40006178186778
 30
0.0
 41
1.0
 10
11.677623152337
 20
-9.40023638054416
 30
0.0
 41
1.0
 10
11.6890651501423
 20
-9.4003061607444
 30
0.0
 41
1.0
  0
ARC
  5
10000113
102
{ACAD_XDICTIONARY
360
10000114
102
}
330
1F
100
AcDbEntity
  8
VISIBLE
100
AcDbCircle
 10
0.0000000000000216
 20
-0.0000000000000157
 30
0.0
 40
15.0
100
AcDbArc
 50
321.1938781419727
 51
326.8061218580272
  0
SPLINE
  5
10000119
102
{ACAD_XDICTIONARY
360
1000011A
102
}
330
1F
100
AcDbEntity
  8
VISIBLE
100
AcDbSpline
210
0.0
220
0.0
230
1.0
 70
    12
 71
     5
 72
    81
 73
    75
 74
     0
 42
0.0000000001
 43
0.00000001
 40
-1.0
 40
-1.0
 40
-1.0
 40
-1.0
 40
-1.0
 40
-1.0
 40
-0.985714285714284
 40
-0.97142857142857
 40
-0.957142857142856
 40
-0.9428571428571411
 40
-0.928571428571427
 40
-0.914285714285713
 40
-0.9
 40
-0.885714285714284
 40
-0.87142857142857
 40
-0.857142857142856
 40
-0.842857142857142
 40
-0.8285714285714281
 40
-0.8142857142857131
 40
-0.8
 40
-0.7857142857142849
 40
-0.7714285714285709
 40
-0.7571428571428559
 40
-0.742857142857142
 40
-0.728571428571428
 40
-0.714285714285714
 40
-0.7
 40
-0.6857142857142849
 40
-0.6714285714285709
 40
-0.6571428571428569
 40
-0.642857142857142
 40
-0.628571428571428
 40
-0.614285714285714
 40
-0.6
 40
-0.585714285714286
 40
-0.571428571428571
 40
-0.5571428571428569
 40
-0.542857142857143
 40
-0.528571428571429
 40
-0.514285714285714
 40
-0.5
 40
-0.485714285714286
 40
-0.471428571428572
 40
-0.457142857142857
 40
-0.442857142857143
 40
-0.428571428571429
 40
-0.414285714285714
 40
-0.4
 40
-0.385714285714286
 40
-0.371428571428571
 40
-0.357142857142857
 40
-0.342857142857143
 40
-0.328571428571429
 40
-0.314285714285714
 40
-0.3
 40
-0.285714285714286
 40
-0.271428571428571
 40
-0.257142857142857
 40
-0.242857142857143
 40
-0.228571428571429
 40
-0.214285714285714
 40
-0.2
 40
-0.185714285714286
 40
-0.171428571428571
 40
-0.157142857142857
 40
-0.142857142857143
 40
-0.128571428571429
 40
-0.114285714285714
 40
-0.1
 40
-0.0857142857142857
 40
-0.0714285714285714
 40
-0.0571428571428571
 40
-0.0428571428571429
 40
-0.0285714285714286
 40
-0.0142857142857143
 40
0.0
 40
0.0
 40
0.0
 40
0.0
 40
0.0
 40
0.0
 10
12.5523422090954
 20
-8.212107224443871
 30
0.0
 41
1.0
 10
12.5487400724098
 20
-8.20124680113947
 30
0.0
 41
1.0
 10
12.5415063350458
 20
-8.17954865992764
 30
0.0
 41
1.0
 10
12.5305673370314
 20
-8.14706956431126
 30
0.0
 41
1.0
 10
12.5158051635872
 20
-8.10390038106245
 30
0.0
 41
1.0
 10
12.4970573731102
 20
-8.0501664479144
 30
0.0
 41
1.0
 10
12.4780140890685
 20
-7.99666085517392
 30
0.0
 41
1.0
 10
12.4586749175638
 20
-7.94338485385564
 30
0.0
 41
1.0
 10
12.4390395931333
 20
-7.8903402175729
 30
0.0
 41
1.0
 10
12.4191081064946
 20
-7.83752933810823
 30
0.0
 41
1.0
 10
12.3988806530687
 20
-7.78495509125036
 30
0.0
 41
1.0
 10
12.3783575484401
 20
-7.73262065994698
 30
0.0
 41
1.0
 10
12.3575391552429
 20
-7.68052936430467
 30
0.0
 41
1.0
 10
12.3364258126739
 20
-7.628684502425831
 30
0.0
 41
1.0
 10
12.3150177540584
 20
-7.57708914634338
 30
0.0
 41
1.0
 10
12.2933151009064
 20
-7.525746159595641
 30
0.0
 41
1.0
 10
12.2713178936696
 20
-7.47465831555794
 30
0.0
 41
1.0
 10
12.2490261134392
 20
-7.42382838592319
 30
0.0
 41
1.0
 10
12.2264397078765
 20
-7.37325923066952
 30
0.0
 41
1.0
 10
12.2035586214633
 20
-7.322953907837491
 30
0.0
 41
1.0
 10
12.1803828088455
 20
-7.272915679026191
 30
0.0
 41
1.0
 10
12.1569122329103
 20
-7.223147930816159
 30
0.0
 41
1.0
 10
12.1331468707407
 20
-7.173654114537
 30
0.0
 41
1.0
 10
12.1090867153024
 20
-7.124437686049929
 30
0.0
 41
1.0
 10
12.0847317889763
 20
-7.07550202058821
 30
0.0
 41
1.0
 10
12.0600821253078
 20
-7.02685042160274
 30
0.0
 41
1.0
 10
12.0351377153957
 20
-6.97848624103415
 30
0.0
 41
1.0
 10
12.0098984617753
 20
-6.93041297540754
 30
0.0
 41
1.0
 10
11.9843641387901
 20
-6.88263435593635
 30
0.0
 41
1.0
 10
11.9585343342089
 20
-6.83515447277646
 30
0.0
 41
1.0
 10
11.9324084630764
 20
-6.787977767121609
 30
0.0
 41
1.0
 10
11.9059858920862
 20
-6.741108817026841
 30
0.0
 41
1.0
 10
11.8792660485724
 20
-6.694552155751199
 30
0.0
 41
1.0
 10
11.8522485196733
 20
-6.64831210433768
 30
0.0
 41
1.0
 10
11.8249332017154
 20
-6.602392524803269
 30
0.0
 41
1.0
 10
11.797320285119
 20
-6.55679684056788
 30
0.0
 41
1.0
 10
11.7694099280404
 20
-6.51152856327198
 30
0.0
 41
1.0
 10
11.7412019800437
 20
-6.466591738722911
 30
0.0
 41
1.0
 10
11.7126957280027
 20
-6.421991358721849
 30
0.0
 41
1.0
 10
11.6838895375895
 20
-6.37773394054891
 30
0.0
 41
1.0
 10
11.6547808580357
 20
-6.33382752582842
 30
0.0
 41
1.0
 10
11.6253669578475
 20
-6.29028050965063
 30
0.0
 41
1.0
 10
11.5956455564131
 20
-6.247100637603531
 30
0.0
 41
1.0
 10
11.5656153992868
 20
-6.20429409266043
 30
0.0
 41
1.0
 10
11.5352771010352
 20
-6.16186415696855
 30
0.0
 41
1.0
 10
11.5046330803693
 20
-6.11981131961912
 30
0.0
 41
1.0
 10
11.4736857741001
 20
-6.07813612604166
 30
0.0
 41
1.0
 10
11.4424361020195
 20
-6.036841628204071
 30
0.0
 41
1.0
 10
11.4108820887862
 20
-5.995935586046841
 30
0.0
 41
1.0
 10
11.3790168017526
 20
-5.9554337573779
 30
0.0
 41
1.0
 10
11.3468286939518
 20
-5.91535936318435
 30
0.0
 41
1.0
 10
11.314305721962
 20
-5.875736550378379
 30
0.0
 41
1.0
 10
11.2814389116444
 20
-5.83658473244309
 30
0.0
 41
1.0
 10
11.248225469568
 20
-5.79791365500088
 30
0.0
 41
1.0
 10
11.2146737485115
 20
-5.7597155088052
 30
0.0
 41
1.0
 10
11.1808013708233
 20
-5.72196794044476
 30
0.0
 41
1.0
 10
11.1466253731495
 20
-5.684649771916571
 30
0.0
 41
1.0
 10
11.1121535988883
 20
-5.64775473141721
 30
0.0
 41
1.0
 10
11.0773772952336
 20
-5.61130327111269
 30
0.0
 41
1.0
 10
11.0422589575442
 20
-5.57536194255486
 30
0.0
 41
1.0
 10
11.0067396569367
 20
-5.5400317948147
 30
0.0
 41
1.0
 10
10.9707614848896
 20
-5.50541276072843
 30
0.0
 41
1.0
 10
10.9342874964844
 20
-5.47157197860163
 30
0.0
 41
1.0
 10
10.8973187264718
 20
-5.43851686456757
 30
0.0
 41
1.0
 10
10.8599225079797
 20
-5.40614997692118
 30
0.0
 41
1.0
 10
10.82220409985
 20
-5.374315125872629
 30
0.0
 41
1.0
 10
10.7842522662083
 20
-5.34288535640585
 30
0.0
 41
1.0
 10
10.7460906215719
 20
-5.31184174812738
 30
0.0
 41
1.0
 10
10.7076320341059
 20
-5.28134708492837
 30
0.0
 41
1.0
 10
10.6686171795286
 20
-5.25184557637045
 30
0.0
 41
1.0
 10
10.6286827141523
 20
-5.22394989840357
 30
0.0
 41
1.0
 10
10.5957018378125
 20
-5.20341691012864
 30
0.0
 41
1.0
 10
10.5702522503933
 20
-5.189242108871119
 30
0.0
 41
1.0
 10
10.5529515376423
 20
-5.18036502425663
 30
0.0
 41
1.0
 10
10.5442175994434
 20
-5.176069680197259
 30
0.0
 41
1.0
  0
LINE
  5
1000011D
102
{ACAD_XDICTIONARY
360
1000011E
102
}
330
1F
100
AcDbEntity
  8
VISIBLE
100
AcDbLine
 10
10.5442175994434
 20
-5.17606968019724
 30
0.0
 11
8.896140809438961
 21
-4.36554678798849
 31
0.0
  0
ARC
  5
10000121
102
{ACAD_XDICTIONARY
360
10000122
102
}
330
1F
100
AcDbEntity
  8
VISIBLE
100
AcDbCircle
 10
9.10444230513395
 20
-3.941996924464461
 30
0.0
 40
0.472
100
AcDbArc
 50
156.5885892682924
 51
243.8120762105365
  0
ARC
  5
10000127
102
{ACAD_XDICTIONARY
360
10000128
102
}
330
1F
100
AcDbEntity
  8
VISIBLE
100
AcDbCircle
 10
0.0
 20
0.0
 30
0.0
 40
9.4492
100
AcDbArc
 50
336.5885892682924
 51
347.4114107317077
  0
ARC
  5
1000012D
102
{ACAD_XDICTIONARY
360
1000012E
102
}
330
1F
100
AcDbEntity
  8
VISIBLE
100
AcDbCircle
 10
9.682696205942081
 20
-2.16231441363991
 30
0.0
 40
0.472
100
AcDbArc
 50
80.18792378946385
 51
167.4114107317065
  0
LINE
  5
10000133
102
{ACAD_XDICTIONARY
360
10000134
102
}
330
1F
100
AcDbEntity
  8
VISIBLE
100
AcDbLine
 10
9.76313311936103
 20
-1.697218828883795
 30
0.0
 11
11.5728686531953
 21
-2.010207266567125
 31
0.0
  0
SPLINE
  5
10000137
102
{ACAD_XDICTIONARY
360
10000138
102
}
330
1F
100
AcDbEntity
  8
VISIBLE
100
AcDbSpline
210
0.0
220
0.0
230
1.0
 70
    12
 71
     5
 72
    81
 73
    75
 74
     0
 42
0.0000000001
 43
0.00000001
 40
0.0
 40
0.0
 40
0.0
 40
0.0
 40
0.0
 40
0.0
 40
0.0142857142857143
 40
0.0285714285714286
 40
0.0428571428571429
 40
0.0571428571428571
 40
0.0714285714285714
 40
0.0857142857142857
 40
0.1
 40
0.114285714285714
 40
0.128571428571429
 40
0.142857142857143
 40
0.157142857142857
 40
0.171428571428571
 40
0.185714285714286
 40
0.2
 40
0.214285714285714
 40
0.228571428571429
 40
0.242857142857143
 40
0.257142857142857
 40
0.271428571428571
 40
0.285714285714286
 40
0.3
 40
0.314285714285714
 40
0.328571428571429
 40
0.342857142857143
 40
0.357142857142857
 40
0.371428571428571
 40
0.385714285714286
 40
0.4
 40
0.414285714285714
 40
0.428571428571429
 40
0.442857142857143
 40
0.457142857142857
 40
0.471428571428572
 40
0.485714285714286
 40
0.5
 40
0.514285714285714
 40
0.528571428571429
 40
0.542857142857143
 40
0.5571428571428569
 40
0.571428571428571
 40
0.585714285714286
 40
0.6
 40
0.614285714285714
 40
0.628571428571428
 40
0.642857142857142
 40
0.6571428571428569
 40
0.6714285714285709
 40
0.6857142857142849
 40
0.7
 40
0.714285714285714
 40
0.728571428571428
 40
0.742857142857142
 40
0.7571428571428559
 40
0.7714285714285709
 40
0.7857142857142849
 40
0.8
 40
0.8142857142857131
 40
0.8285714285714281
 40
0.842857142857142
 40
0.857142857142856
 40
0.87142857142857
 40
0.885714285714284
 40
0.9
 40
0.914285714285713
 40
0.928571428571427
 40
0.9428571428571411
 40
0.957142857142856
 40
0.97142857142857
 40
0.985714285714284
 40
1.0
 40
1.0
 40
1.0
 40
1.0
 40
1.0
 40
1.0
 10
11.5728686531953
 20
-2.01020726656712
 30
0.0
 41
1.0
 10
11.5824592975177
 20
-2.01186594029414
 30
0.0
 41
1.0
 10
11.6016736875677
 20
-2.01485333178966
 30
0.0
 41
1.0
 10
11.6305945754231
 20
-2.01834456884239
 30
0.0
 41
1.0
 10
11.6693456525649
 20
-2.02111870510291
 30
0.0
 41
1.0
 10
11.7180499818272
 20
-2.02202351736448
 30
0.0
 41
1.0
 10
11.766954213864
 20
-2.02108865172229
 30
0.0
 41
1.0
 10
11.8159921780057
 20
-2.01902334149304
 30
0.0
 41
1.0
 10
11.8651125721738
 20
-2.01633938674951
 30
0.0
 41
1.0
 10
11.9142902055332
 20
-2.01321969723371
 30
0.0
 41
1.0
 10
11.9635170946661
 20
-2.00963508576057
 30
0.0
 41
1.0
 10
12.0127960501728
 20
-2.00543066932083
 30
0.0
 41
1.0
 10
12.0621337219162
 20
-2.00041821812506
 30
0.0
 41
1.0
 10
12.1115329110488
 20
-1.99447932275839
 30
0.0
 41
1.0
 10
12.1609884213459
 20
-1.98761937478746
 30
0.0
 41
1.0
 10
12.2104906789687
 20
-1.97991440592071
 30
0.0
 41
1.0
 10
12.2600277938477
 20
-1.97147930129587
 30
0.0
 41
1.0
 10
12.3095880452974
 20
-1.96243044885724
 30
0.0
 41
1.0
 10
12.3591626571893
 20
-1.95284373461621
 30
0.0
 41
1.0
 10
12.4087466892105
 20
-1.94274084949296
 30
0.0
 41
1.0
 10
12.4583374823923
 20
-1.93211210925826
 30
0.0
 41
1.0
 10
12.5079337019163
 20
-1.92093036665839
 30
0.0
 41
1.0
 10
12.5575342300086
 20
-1.90916717924723
 30
0.0
 41
1.0
 10
12.6071368992892
 20
-1.89681131957146
 30
0.0
 41
1.0
 10
12.6567382413582
 20
-1.88387231394281
 30
0.0
 41
1.0
 10
12.7063341054874
 20
-1.87037114306549
 30
0.0
 41
1.0
 10
12.7559200418107
 20
-1.85633442114747
 30
0.0
 41
1.0
 10
12.8054917430668
 20
-1.84178772149882
 30
0.0
 41
1.0
 10
12.8550455556784
 20
-1.82674786736197
 30
0.0
 41
1.0
 10
12.9045785165516
 20
-1.81122229773717
 30
0.0
 41
1.0
 10
12.9540880876573
 20
-1.79521294107814
 30
0.0
 41
1.0
 10
13.0035719769787
 20
-1.77871880632511
 30
0.0
 41
1.0
 10
13.0530279402568
 20
-1.76173886747853
 30
0.0
 41
1.0
 10
13.102453551099
 20
-1.7442754186181
 30
0.0
 41
1.0
 10
13.1518461901128
 20
-1.72633419921897
 30
0.0
 41
1.0
 10
13.2012031496093
 20
-1.70792281610345
 30
0.0
 41
1.0
 10
13.2505217049034
 20
-1.68904966657401
 30
0.0
 41
1.0
 10
13.2997991928618
 20
-1.66972275574538
 30
0.0
 41
1.0
 10
13.3490331049224
 20
-1.64994831684186
 30
0.0
 41
1.0
 10
13.3982210839092
 20
-1.62973080748039
 30
0.0
 41
1.0
 10
13.4473608734618
 20
-1.60907358921197
 30
0.0
 41
1.0
 10
13.4964502815382
 20
-1.58797941005141
 30
0.0
 41
1.0
 10
13.5454871418497
 20
-1.56645092767737
 30
0.0
 41
1.0
 10
13.5944692682332
 20
-1.54449132746499
 30
0.0
 41
1.0
 10
13.6433944548555
 20
-1.52210434788551
 30
0.0
 41
1.0
 10
13.6922605004302
 20
-1.49929399302711
 30
0.0
 41
1.0
 10
13.7410652263997
 20
-1.47606433886222
 30
0.0
 41
1.0
 10
13.7898064955347
 20
-1.45241932222026
 30
0.0
 41
1.0
 10
13.8384822372038
 20
-1.42836249441016
 30
0.0
 41
1.0
 10
13.8870904408148
 20
-1.40389700668462
 30
0.0
 41
1.0
 10
13.9356291300123
 20
-1.37902574508018
 30
0.0
 41
1.0
 10
13.9840963417764
 20
-1.35375142660572
 30
0.0
 41
1.0
 10
14.0324901072485
 20
-1.32807670409178
 30
0.0
 41
1.0
 10
14.0808084244098
 20
-1.30200429500414
 30
0.0
 41
1.0
 10
14.1290492676467
 20
-1.27553699932795
 30
0.0
 41
1.0
 10
14.1772106268591
 20
-1.24867762271783
 30
0.0
 41
1.0
 10
14.2252905414896
 20
-1.22142892678931
 30
0.0
 41
1.0
 10
14.2732871311107
 20
-1.19379357688996
 30
0.0
 41
1.0
 10
14.3211986431663
 20
-1.16577407965932
 30
0.0
 41
1.0
 10
14.3690234389465
 20
-1.13737277963226
 30
0.0
 41
1.0
 10
14.4167599045884
 20
-1.10859193026974
 30
0.0
 41
1.0
 10
14.464406377217
 20
-1.07943375150263
 30
0.0
 41
1.0
 10
14.5119610753829
 20
-1.04990048856029
 30
0.0
 41
1.0
 10
14.5594220046264
 20
-1.01999448962438
 30
0.0
 41
1.0
 10
14.6067869519555
 20
-0.989718223540917
 30
0.0
 41
1.0
 10
14.6540536724834
 20
-0.959074163181634
 30
0.0
 41
1.0
 10
14.7012200400072
 20
-0.928064698109354
 30
0.0
 41
1.0
 10
14.7482842060817
 20
-0.896692040020365
 30
0.0
 41
1.0
 10
14.7952447723622
 20
-0.8649581293635621
 30
0.0
 41
1.0
 10
14.8421009111086
 20
-0.8328645570573171
 30
0.0
 41
1.0
 10
14.8888522056636
 20
-0.800412566721402
 30
0.0
 41
1.0
 10
14.9261692641211
 20
-0.7741649516821301
 30
0.0
 41
1.0
 10
14.9541098328272
 20
-0.754318593074258
 30
0.0
 41
1.0
 10
14.972715896694
 20
-0.741016312229043
 30
0.0
 41
1.0
 10
14.9820136831407
 20
-0.7343473280302031
 30
0.0
 41
1.0
  0
ARC
  5
1000013B
102
{ACAD_XDICTIONARY
360
1000013C
102
}
330
1F
100
AcDbEntity
  8
VISIBLE
100
AcDbCircle
 10
0.0000000000000266
 20
0.0
 30
0.0
 40
15.0
100
AcDbArc
 50
357.1938781419727
 51
2.806121858027278
  0
SPLINE
  5
10000141
102
{ACAD_XDICTIONARY
360
10000142
102
}
330
1F
100
AcDbEntity
  8
VISIBLE
100
AcDbSpline
210
0.0
220
0.0
230
1.0
 70
    12
 71
     5
 72
    81
 73
    75
 74
     0
 42
0.0000000001
 43
0.00000001
 40
-1.0
 40
-1.0
 40
-1.0
 40
-1.0
 40
-1.0
 40
-1.0
 40
-0.985714285714284
 40
-0.97142857142857
 40
-0.957142857142856
 40
-0.9428571428571411
 40
-0.928571428571427
 40
-0.914285714285713
 40
-0.9
 40
-0.885714285714284
 40
-0.87142857142857
 40
-0.857142857142856
 40
-0.842857142857142
 40
-0.8285714285714281
 40
-0.8142857142857131
 40
-0.8
 40
-0.7857142857142849
 40
-0.7714285714285709
 40
-0.7571428571428559
 40
-0.742857142857142
 40
-0.728571428571428
 40
-0.714285714285714
 40
-0.7
 40
-0.6857142857142849
 40
-0.6714285714285709
 40
-0.6571428571428569
 40
-0.642857142857142
 40
-0.628571428571428
 40
-0.614285714285714
 40
-0.6
 40
-0.585714285714286
 40
-0.571428571428571
 40
-0.5571428571428569
 40
-0.542857142857143
 40
-0.528571428571429
 40
-0.514285714285714
 40
-0.5
 40
-0.485714285714286
 40
-0.471428571428572
 40
-0.457142857142857
 40
-0.442857142857143
 40
-0.428571428571429
 40
-0.414285714285714
 40
-0.4
 40
-0.385714285714286
 40
-0.371428571428571
 40
-0.357142857142857
 40
-0.342857142857143
 40
-0.328571428571429
 40
-0.314285714285714
 40
-0.3
 40
-0.285714285714286
 40
-0.271428571428571
 40
-0.257142857142857
 40
-0.242857142857143
 40
-0.228571428571429
 40
-0.214285714285714
 40
-0.2
 40
-0.185714285714286
 40
-0.171428571428571
 40
-0.157142857142857
 40
-0.142857142857143
 40
-0.128571428571429
 40
-0.114285714285714
 40
-0.1
 40
-0.0857142857142857
 40
-0.0714285714285714
 40
-0.0571428571428571
 40
-0.0428571428571429
 40
-0.0285714285714286
 40
-0.0142857142857143
 40
0.0
 40
0.0
 40
0.0
 40
0.0
 40
0.0
 40
0.0
 10
14.9820136831407
 20
0.734347328030199
 30
0.0
 41
1.0
 10
14.972715896694
 20
0.741016312229037
 30
0.0
 41
1.0
 10
14.9541098328272
 20
0.754318593074254
 30
0.0
 41
1.0
 10
14.9261692641211
 20
0.7741649516821271
 30
0.0
 41
1.0
 10
14.8888522056636
 20
0.800412566721397
 30
0.0
 41
1.0
 10
14.8421009111086
 20
0.8328645570573121
 30
0.0
 41
1.0
 10
14.7952447723622
 20
0.864958129363557
 30
0.0
 41
1.0
 10
14.7482842060817
 20
0.896692040020358
 30
0.0
 41
1.0
 10
14.7012200400072
 20
0.92806469810935
 30
0.0
 41
1.0
 10
14.6540536724834
 20
0.95907416318163
 30
0.0
 41
1.0
 10
14.6067869519555
 20
0.989718223540912
 30
0.0
 41
1.0
 10
14.5594220046264
 20
1.01999448962437
 30
0.0
 41
1.0
 10
14.5119610753829
 20
1.04990048856028
 30
0.0
 41
1.0
 10
14.464406377217
 20
1.07943375150263
 30
0.0
 41
1.0
 10
14.4167599045884
 20
1.10859193026973
 30
0.0
 41
1.0
 10
14.3690234389465
 20
1.13737277963225
 30
0.0
 41
1.0
 10
14.3211986431663
 20
1.16577407965932
 30
0.0
 41
1.0
 10
14.2732871311107
 20
1.19379357688995
 30
0.0
 41
1.0
 10
14.2252905414896
 20
1.2214289267893
 30
0.0
 41
1.0
 10
14.1772106268591
 20
1.24867762271783
 30
0.0
 41
1.0
 10
14.1290492676467
 20
1.27553699932795
 30
0.0
 41
1.0
 10
14.0808084244098
 20
1.30200429500414
 30
0.0
 41
1.0
 10
14.0324901072485
 20
1.32807670409178
 30
0.0
 41
1.0
 10
13.9840963417764
 20
1.35375142660572
 30
0.0
 41
1.0
 10
13.9356291300123
 20
1.37902574508018
 30
0.0
 41
1.0
 10
13.8870904408148
 20
1.40389700668462
 30
0.0
 41
1.0
 10
13.8384822372038
 20
1.42836249441016
 30
0.0
 41
1.0
 10
13.7898064955347
 20
1.45241932222025
 30
0.0
 41
1.0
 10
13.7410652263997
 20
1.47606433886222
 30
0.0
 41
1.0
 10
13.6922605004302
 20
1.4992939930271
 30
0.0
 41
1.0
 10
13.6433944548555
 20
1.5221043478855
 30
0.0
 41
1.0
 10
13.5944692682332
 20
1.54449132746498
 30
0.0
 41
1.0
 10
13.5454871418497
 20
1.56645092767737
 30
0.0
 41
1.0
 10
13.4964502815382
 20
1.58797941005141
 30
0.0
 41
1.0
 10
13.4473608734618
 20
1.60907358921197
 30
0.0
 41
1.0
 10
13.3982210839092
 20
1.62973080748038
 30
0.0
 41
1.0
 10
13.3490331049224
 20
1.64994831684185
 30
0.0
 41
1.0
 10
13.2997991928618
 20
1.66972275574538
 30
0.0
 41
1.0
 10
13.2505217049034
 20
1.689049666574
 30
0.0
 41
1.0
 10
13.2012031496093
 20
1.70792281610345
 30
0.0
 41
1.0
 10
13.1518461901128
 20
1.72633419921897
 30
0.0
 41
1.0
 10
13.102453551099
 20
1.74427541861809
 30
0.0
 41
1.0
 10
13.0530279402568
 20
1.76173886747853
 30
0.0
 41
1.0
 10
13.0035719769787
 20
1.77871880632511
 30
0.0
 41
1.0
 10
12.9540880876573
 20
1.79521294107813
 30
0.0
 41
1.0
 10
12.9045785165516
 20
1.81122229773717
 30
0.0
 41
1.0
 10
12.8550455556784
 20
1.82674786736196
 30
0.0
 41
1.0
 10
12.8054917430668
 20
1.84178772149882
 30
0.0
 41
1.0
 10
12.7559200418107
 20
1.85633442114746
 30
0.0
 41
1.0
 10
12.7063341054874
 20
1.87037114306549
 30
0.0
 41
1.0
 10
12.6567382413582
 20
1.88387231394281
 30
0.0
 41
1.0
 10
12.6071368992892
 20
1.89681131957146
 30
0.0
 41
1.0
 10
12.5575342300086
 20
1.90916717924723
 30
0.0
 41
1.0
 10
12.5079337019163
 20
1.92093036665838
 30
0.0
 41
1.0
 10
12.4583374823923
 20
1.93211210925826
 30
0.0
 41
1.0
 10
12.4087466892105
 20
1.94274084949295
 30
0.0
 41
1.0
 10
12.3591626571893
 20
1.9528437346162
 30
0.0
 41
1.0
 10
12.3095880452974
 20
1.96243044885723
 30
0.0
 41
1.0
 10
12.2600277938477
 20
1.97147930129587
 30
0.0
 41
1.0
 10
12.2104906789687
 20
1.97991440592071
 30
0.0
 41
1.0
 10
12.1609884213459
 20
1.98761937478746
 30
0.0
 41
1.0
 10
12.1115329110488
 20
1.99447932275839
 30
0.0
 41
1.0
 10
12.0621337219162
 20
2.00041821812506
 30
0.0
 41
1.0
 10
12.0127960501728
 20
2.00543066932083
 30
0.0
 41
1.0
 10
11.9635170946661
 20
2.00963508576056
 30
0.0
 41
1.0
 10
11.9142902055332
 20
2.0132196972337
 30
0.0
 41
1.0
 10
11.8651125721738
 20
2.01633938674951
 30
0.0
 41
1.0
 10
11.8159921780057
 20
2.01902334149304
 30
0.0
 41
1.0
 10
11.766954213864
 20
2.02108865172229
 30
0.0
 41
1.0
 10
11.7180499818272
 20
2.02202351736448
 30
0.0
 41
1.0
 10
11.6693456525649
 20
2.02111870510291
 30
0.0
 41
1.0
 10
11.6305945754231
 20
2.01834456884239
 30
0.0
 41
1.0
 10
11.6016736875677
 20
2.01485333178966
 30
0.0
 41
1.0
 10
11.5824592975177
 20
2.01186594029414
 30
0.0
 41
1.0
 10
11.5728686531953
 20
2.01020726656712
 30
0.0
 41
1.0
  0
LINE
  5
10000145
102
{ACAD_XDICTIONARY
360
10000146
102
}
330
1F
100
AcDbEntity
  8
VISIBLE
100
AcDbLine
 10
11.5728686531953
 20
2.01020726656712
 30
0.0
 11
9.76313311936103
 21
1.697218828883795
 31
0.0
  0
ARC
  5
10000149
102
{ACAD_XDICTIONARY
360
1000014A
102
}
330
1F
100
AcDbEntity
  8
VISIBLE
100
AcDbCircle
 10
9.682696205942081
 20
2.16231441363991
 30
0.0
 40
0.472
100
AcDbArc
 50
192.5885892682935
 51
279.8120762105361
  0
ARC
  5
1000014F
102
{ACAD_XDICTIONARY
360
10000150
102
}
330
1F
100
AcDbEntity
  8
VISIBLE
100
AcDbCircle
 10
0.0
 20
0.0
 30
0.0
 40
9.4492
100
AcDbArc
 50
12.58858926829233
 51
23.41141073170757
  0
ARC
  5
10000155
102
{ACAD_XDICTIONARY
360
10000156
102
}
330
1F
100
AcDbEntity
  8
VISIBLE
100
AcDbCircle
 10
9.10444230513395
 20
3.94199692446445
 30
0.0
 40
0.472
100
AcDbArc
 50
116.1879237894634
 51
203.4114107317075
  0
LINE
  5
1000015B
102
{ACAD_XDICTIONARY
360
1000015C
102
}
330
1F
100
AcDbEntity
  8
VISIBLE
100
AcDbLine
 10
8.896140809438961
 20
4.36554678798849
 30
0.0
 11
10.5442175994434
 21
5.17606968019724
 31
0.0
  0
SPLINE
  5
1000015F
102
{ACAD_XDICTIONARY
360
10000160
102
}
330
1F
100
AcDbEntity
  8
VISIBLE
100
AcDbSpline
210
0.0
220
0.0
230
1.0
 70
    12
 71
     5
 72
    81
 73
    75
 74
     0
 42
0.0000000001
 43
0.00000001
 40
0.0
 40
0.0
 40
0.0
 40
0.0
 40
0.0
 40
0.0
 40
0.0142857142857143
 40
0.0285714285714286
 40
0.0428571428571429
 40
0.0571428571428571
 40
0.0714285714285714
 40
0.0857142857142857
 40
0.1
 40
0.114285714285714
 40
0.128571428571429
 40
0.142857142857143
 40
0.157142857142857
 40
0.171428571428571
 40
0.185714285714286
 40
0.2
 40
0.214285714285714
 40
0.228571428571429
 40
0.242857142857143
 40
0.257142857142857
 40
0.271428571428571
 40
0.285714285714286
 40
0.3
 40
0.314285714285714
 40
0.328571428571429
 40
0.342857142857143
 40
0.357142857142857
 40
0.371428571428571
 40
0.385714285714286
 40
0.4
 40
0.414285714285714
 40
0.428571428571429
 40
0.442857142857143
 40
0.457142857142857
 40
0.471428571428572
 40
0.485714285714286
 40
0.5
 40
0.514285714285714
 40
0.528571428571429
 40
0.542857142857143
 40
0.5571428571428569
 40
0.571428571428571
 40
0.585714285714286
 40
0.6
 40
0.614285714285714
 40
0.628571428571428
 40
0.642857142857142
 40
0.6571428571428569
 40
0.6714285714285709
 40
0.6857142857142849
 40
0.7
 40
0.714285714285714
 40
0.728571428571428
 40
0.742857142857142
 40
0.7571428571428559
 40
0.7714285714285709
 40
0.7857142857142849
 40
0.8
 40
0.8142857142857131
 40
0.8285714285714281
 40
0.842857142857142
 40
0.857142857142856
 40
0.87142857142857
 40
0.885714285714284
 40
0.9
 40
0.914285714285713
 40
0.928571428571427
 40
0.9428571428571411
 40
0.957142857142856
 40
0.97142857142857
 40
0.985714285714284
 40
1.0
 40
1.0
 40
1.0
 40
1.0
 40
1.0
 40
1.0
 10
10.5442175994434
 20
5.176069680197251
 30
0.0
 41
1.0
 10
10.5529515376423
 20
5.18036502425662
 30
0.0
 41
1.0
 10
10.5702522503933
 20
5.189242108871119
 30
0.0
 41
1.0
 10
10.5957018378125
 20
5.20341691012864
 30
0.0
 41
1.0
 10
10.6286827141523
 20
5.22394989840357
 30
0.0
 41
1.0
 10
10.6686171795287
 20
5.25184557637045
 30
0.0
 41
1.0
 10
10.7076320341059
 20
5.28134708492837
 30
0.0
 41
1.0
 10
10.7460906215719
 20
5.31184174812738
 30
0.0
 41
1.0
 10
10.7842522662083
 20
5.34288535640585
 30
0.0
 41
1.0
 10
10.82220409985
 20
5.374315125872629
 30
0.0
 41
1.0
 10
10.8599225079797
 20
5.406149976921171
 30
0.0
 41
1.0
 10
10.8973187264719
 20
5.43851686456756
 30
0.0
 41
1.0
 10
10.9342874964844
 20
5.47157197860162
 30
0.0
 41
1.0
 10
10.9707614848896
 20
5.50541276072843
 30
0.0
 41
1.0
 10
11.0067396569367
 20
5.5400317948147
 30
0.0
 41
1.0
 10
11.0422589575442
 20
5.57536194255486
 30
0.0
 41
1.0
 10
11.0773772952336
 20
5.61130327111269
 30
0.0
 41
1.0
 10
11.1121535988883
 20
5.64775473141721
 30
0.0
 41
1.0
 10
11.1466253731495
 20
5.684649771916571
 30
0.0
 41
1.0
 10
11.1808013708233
 20
5.72196794044476
 30
0.0
 41
1.0
 10
11.2146737485115
 20
5.7597155088052
 30
0.0
 41
1.0
 10
11.248225469568
 20
5.79791365500088
 30
0.0
 41
1.0
 10
11.2814389116444
 20
5.83658473244308
 30
0.0
 41
1.0
 10
11.314305721962
 20
5.875736550378379
 30
0.0
 41
1.0
 10
11.3468286939518
 20
5.91535936318434
 30
0.0
 41
1.0
 10
11.3790168017526
 20
5.95543375737789
 30
0.0
 41
1.0
 10
11.4108820887862
 20
5.995935586046841
 30
0.0
 41
1.0
 10
11.4424361020195
 20
6.036841628204071
 30
0.0
 41
1.0
 10
11.4736857741001
 20
6.07813612604165
 30
0.0
 41
1.0
 10
11.5046330803693
 20
6.11981131961912
 30
0.0
 41
1.0
 10
11.5352771010352
 20
6.16186415696855
 30
0.0
 41
1.0
 10
11.5656153992868
 20
6.20429409266043
 30
0.0
 41
1.0
 10
11.5956455564131
 20
6.247100637603521
 30
0.0
 41
1.0
 10
11.6253669578475
 20
6.29028050965063
 30
0.0
 41
1.0
 10
11.6547808580357
 20
6.33382752582842
 30
0.0
 41
1.0
 10
11.6838895375895
 20
6.3777339405489
 30
0.0
 41
1.0
 10
11.7126957280027
 20
6.421991358721849
 30
0.0
 41
1.0
 10
11.7412019800437
 20
6.466591738722911
 30
0.0
 41
1.0
 10
11.7694099280404
 20
6.51152856327198
 30
0.0
 41
1.0
 10
11.797320285119
 20
6.556796840567871
 30
0.0
 41
1.0
 10
11.8249332017154
 20
6.602392524803269
 30
0.0
 41
1.0
 10
11.8522485196733
 20
6.64831210433768
 30
0.0
 41
1.0
 10
11.8792660485724
 20
6.694552155751199
 30
0.0
 41
1.0
 10
11.9059858920862
 20
6.741108817026841
 30
0.0
 41
1.0
 10
11.9324084630764
 20
6.787977767121609
 30
0.0
 41
1.0
 10
11.9585343342089
 20
6.83515447277645
 30
0.0
 41
1.0
 10
11.9843641387901
 20
6.882634355936339
 30
0.0
 41
1.0
 10
12.0098984617753
 20
6.93041297540753
 30
0.0
 41
1.0
 10
12.0351377153957
 20
6.97848624103415
 30
0.0
 41
1.0
 10
12.0600821253078
 20
7.02685042160273
 30
0.0
 41
1.0
 10
12.0847317889763
 20
7.07550202058821
 30
0.0
 41
1.0
 10
12.1090867153024
 20
7.124437686049929
 30
0.0
 41
1.0
 10
12.1331468707407
 20
7.173654114537
 30
0.0
 41
1.0
 10
12.1569122329103
 20
7.223147930816159
 30
0.0
 41
1.0
 10
12.1803828088455
 20
7.272915679026191
 30
0.0
 41
1.0
 10
12.2035586214633
 20
7.32295390783748
 30
0.0
 41
1.0
 10
12.2264397078765
 20
7.37325923066952
 30
0.0
 41
1.0
 10
12.2490261134392
 20
7.42382838592319
 30
0.0
 41
1.0
 10
12.2713178936696
 20
7.47465831555794
 30
0.0
 41
1.0
 10
12.2933151009064
 20
7.525746159595641
 30
0.0
 41
1.0
 10
12.3150177540584
 20
7.57708914634338
 30
0.0
 41
1.0
 10
12.3364258126739
 20
7.628684502425831
 30
0.0
 41
1.0
 10
12.3575391552429
 20
7.68052936430467
 30
0.0
 41
1.0
 10
12.3783575484401
 20
7.73262065994698
 30
0.0
 41
1.0
 10
12.3988806530687
 20
7.78495509125036
 30
0.0
 41
1.0
 10
12.4191081064946
 20
7.837529338108221
 30
0.0
 41
1.0
 10
12.4390395931333
 20
7.8903402175729
 30
0.0
 41
1.0
 10
12.4586749175638
 20
7.94338485385564
 30
0.0
 41
1.0
 10
12.4780140890685
 20
7.99666085517392
 30
0.0
 41
1.0
 10
12.4970573731102
 20
8.0501664479144
 30
0.0
 41
1.0
 10
12.5158051635872
 20
8.10390038106244
 30
0.0
 41
1.0
 10
12.5305673370314
 20
8.14706956431126
 30
0.0
 41
1.0
 10
12.5415063350458
 20
8.17954865992763
 30
0.0
 41
1.0
 10
12.5487400724098
 20
8.20124680113947
 30
0.0
 41
1.0
 10
12.5523422090954
 20
8.212107224443871
 30
0.0
 41
1.0
  0
ARC
  5
10000163
102
{ACAD_XDICTIONARY
360
10000164
102
}
330
1F
100
AcDbEntity
  8
VISIBLE
100
AcDbCircle
 10
0.0000000000000216
 20
0.0000000000000157
 30
0.0
 40
15.0
100
AcDbArc
 50
33.19387814197257
 51
38.80612185802728
  0
SPLINE
  5
10000169
102
{ACAD_XDICTIONARY
360
1000016A
102
}
330
1F
100
AcDbEntity
  8
VISIBLE
100
AcDbSpline
210
0.0
220
0.0
230
1.0
 70
    12
 71
     5
 72
    81
 73
    75
 74
     0
 42
0.0000000001
 43
0.00000001
 40
-1.0
 40
-1.0
 40
-1.0
 40
-1.0
 40
-1.0
 40
-1.0
 40
-0.985714285714284
 40
-0.97142857142857
 40
-0.957142857142856
 40
-0.9428571428571411
 40
-0.928571428571427
 40
-0.914285714285713
 40
-0.9
 40
-0.885714285714284
 40
-0.87142857142857
 40
-0.857142857142856
 40
-0.842857142857142
 40
-0.8285714285714281
 40
-0.8142857142857131
 40
-0.8
 40
-0.7857142857142849
 40
-0.7714285714285709
 40
-0.7571428571428559
 40
-0.742857142857142
 40
-0.728571428571428
 40
-0.714285714285714
 40
-0.7
 40
-0.6857142857142849
 40
-0.6714285714285709
 40
-0.6571428571428569
 40
-0.642857142857142
 40
-0.628571428571428
 40
-0.614285714285714
 40
-0.6
 40
-0.585714285714286
 40
-0.571428571428571
 40
-0.5571428571428569
 40
-0.542857142857143
 40
-0.528571428571429
 40
-0.514285714285714
 40
-0.5
 40
-0.485714285714286
 40
-0.471428571428572
 40
-0.457142857142857
 40
-0.442857142857143
 40
-0.428571428571429
 40
-0.414285714285714
 40
-0.4
 40
-0.385714285714286
 40
-0.371428571428571
 40
-0.357142857142857
 40
-0.342857142857143
 40
-0.328571428571429
 40
-0.314285714285714
 40
-0.3
 40
-0.285714285714286
 40
-0.271428571428571
 40
-0.257142857142857
 40
-0.242857142857143
 40
-0.228571428571429
 40
-0.214285714285714
 40
-0.2
 40
-0.185714285714286
 40
-0.171428571428571
 40
-0.157142857142857
 40
-0.142857142857143
 40
-0.128571428571429
 40
-0.114285714285714
 40
-0.1
 40
-0.0857142857142857
 40
-0.0714285714285714
 40
-0.0571428571428571
 40
-0.0428571428571429
 40
-0.0285714285714286
 40
-0.0142857142857143
 40
0.0
 40
0.0
 40
0.0
 40
0.0
 40
0.0
 40
0.0
 10
11.6890651501423
 20
9.4003061607444
 30
0.0
 41
1.0
 10
11.677623152337
 20
9.40023638054416
 30
0.0
 41
1.0
 10
11.6547516459677
 20
9.40006178186778
 30
0.0
 41
1.0
 10
11.6204818541505
 20
9.39969476903186
 30
0.0
 41
1.0
 10
11.5748637586504
 20
9.39899511904021
 30
0.0
 41
1.0
 10
11.5179663655194
 20
9.39776960925826
 30
0.0
 41
1.0
 10
11.4611948244877
 20
9.396192507329692
 30
0.0
 41
1.0
 10
11.4045502036197
 20
9.394263052050071
 30
0.0
 41
1.0
 10
11.3480341076895
 20
9.39198044287274
 30
0.0
 41
1.0
 10
11.2916488085488
 20
9.38934393186796
 30
0.0
 41
1.0
 10
11.2353971016237
 20
9.38635281622472
 30
0.0
 41
1.0
 10
11.1792821115985
 20
9.38300641249682
 30
0.0
 41
1.0
 10
11.1233071081421
 20
9.37930403960033
 30
0.0
 41
1.0
 10
11.0674753327539
 20
9.37524500096089
 30
0.0
 41
1.0
 10
11.0117897792124
 20
9.37082856917366
 30
0.0
 41
1.0
 10
10.9562532084529
 20
9.36605397491958
 30
0.0
 41
1.0
 10
10.9008682706124
 20
9.36092039965034
 30
0.0
 41
1.0
 10
10.8456375958844
 20
9.35542696888245
 30
0.0
 41
1.0
 10
10.7905638880961
 20
9.34957274905692
 30
0.0
 41
1.0
 10
10.735650038461
 20
9.34335674238635
 30
0.0
 41
1.0
 10
10.6808991349288
 20
9.33677789784686
 30
0.0
 41
1.0
 10
10.6263143868605
 20
9.32983513363121
 30
0.0
 41
1.0
 10
10.5718990695841
 20
9.32252736142444
 30
0.0
 41
1.0
 10
10.5176564676449
 20
9.31485350661664
 30
0.0
 41
1.0
 10
10.4635897979968
 20
9.30681254748909
 30
0.0
 41
1.0
 10
10.4097022127743
 20
9.29840349512269
 30
0.0
 41
1.0
 10
10.3559968971118
 20
9.289625305245359
 30
0.0
 41
1.0
 10
10.3024771462839
 20
9.28047680467699
 30
0.0
 41
1.0
 10
10.249146439154
 20
9.27095662579705
 30
0.0
 41
1.0
 10
10.1960085383049
 20
9.26106311262286
 30
0.0
 41
1.0
 10
10.1430674868017
 20
9.25079433642435
 30
0.0
 41
1.0
 10
10.0903274429311
 20
9.240148280194632
 30
0.0
 41
1.0
 10
10.0377925411151
 20
9.22912299844199
 30
0.0
 41
1.0
 10
9.985466763328661
 20
9.21771676323586
 30
0.0
 41
1.0
 10
9.93335375053119
 20
9.20592828254803
 30
0.0
 41
1.0
 10
9.881456817431609
 20
9.19375667958394
 30
0.0
 41
1.0
 10
9.829779352671551
 20
9.181201019602781
 30
0.0
 41
1.0
 10
9.7783251575551
 20
9.16825990930807
 30
0.0
 41
1.0
 10
9.72709875919926
 20
9.15493112792526
 30
0.0
 41
1.0
 10
9.6761058508706
 20
9.141211107165718
 30
0.0
 41
1.0
 10
9.62535329237759
 20
9.12709493610605
 30
0.0
 41
1.0
 10
9.574848223847479
 20
9.11257742271566
 30
0.0
 41
1.0
 10
9.524597307024418
 20
9.09765400448553
 30
0.0
 41
1.0
 10
9.47460603462044
 20
9.0823215777231
 30
0.0
 41
1.0
 10
9.424877718054521
 20
9.06657971267663
 30
0.0
 41
1.0
 10
9.37541356990293
 20
9.05043055853954
 30
0.0
 41
1.0
 10
9.326214861915888
 20
9.03387626430969
 30
0.0
 41
1.0
 10
9.277284780918789
 20
9.016916761651391
 30
0.0
 41
1.0
 10
9.228630096639481
 20
8.9995477739498
 30
0.0
 41
1.0
 10
9.180263653337999
 20
8.981757838434849
 30
0.0
 41
1.0
 10
9.13220396727641
 20
8.963528797608719
 30
0.0
 41
1.0
 10
9.08447028191093
 20
8.94484173569054
 30
0.0
 41
1.0
 10
9.03707828739974
 20
8.925682118670869
 30
0.0
 41
1.0
 10
8.990036389162881
 20
8.90604427827594
 30
0.0
 41
1.0
 10
8.94333974131609
 20
8.885938571660311
 30
0.0
 41
1.0
 10
8.89697253010705
 20
8.865388666257209
 30
0.0
 41
1.0
 10
8.8509198786712
 20
8.844417309242871
 30
0.0
 41
1.0
 10
8.805178245912339
 20
8.82303389822593
 30
0.0
 41
1.0
 10
8.75976437823039
 20
8.8012237887263
 30
0.0
 41
1.0
 10
8.714729980340941
 20
8.778930746150131
 30
0.0
 41
1.0
 10
8.67015294559496
 20
8.75606749991862
 30
0.0
 41
1.0
 10
8.62611042105028
 20
8.73254809481037
 30
0.0
 41
1.0
 10
8.582654842422231
 20
8.708316647242471
 30
0.0
 41
1.0
 10
8.53979358262823
 20
8.68337184961012
 30
0.0
 41
1.0
 10
8.49745477618049
 20
8.65780785066608
 30
0.0
 41
1.0
 10
8.45552240453266
 20
8.63177302281754
 30
0.0
 41
1.0
 10
8.41390315591263
 20
8.60539101702168
 30
0.0
 41
1.0
 10
8.37258633324414
 20
8.57869013874251
 30
0.0
 41
1.0
 10
8.331699827989869
 20
8.55153721769173
 30
0.0
 41
1.0
 10
8.29158597293786
 20
8.523548353517791
 30
0.0
 41
1.0
 10
8.252715178168428
 20
8.49418865855825
 30
0.0
 41
1.0
 10
8.222995494592158
 20
8.46916702352438
 30
0.0
 41
1.0
 10
8.20165010247664
 20
8.44934328205276
 30
0.0
 41
1.0
 10
8.187861279053479
 20
8.43563249646081
 30
0.0
 41
1.0
 10
8.18107722876481
 20
8.42865336193488
 30
0.0
 41
1.0
  0
LINE
  5
1000016D
102
{ACAD_XDICTIONARY
360
1000016E
102
}
330
1F
100
AcDbEntity
  8
VISIBLE
100
AcDbLine
 10
8.18107722876481
 20
8.42865336193488
 30
0.0
 11
6.900940414376969
 21
7.111704539468761
 31
0.0
  0
ARC
  5
10000171
102
{ACAD_XDICTIONARY
360
10000172
102
}
330
1F
100
AcDbEntity
  8
VISIBLE
100
AcDbCircle
 10
6.562489258819981
 20
7.44069514009762
 30
0.0
 40
0.472
100
AcDbArc
 50
228.5885892682928
 51
315.8120762105373
  0
ARC
  5
10000177
102
{ACAD_XDICTIONARY
360
10000178
102
}
330
1F
100
AcDbEntity
  8
VISIBLE
100
AcDbCircle
 10
0.0
 20
0.0
 30
0.0
 40
9.4492
100
AcDbArc
 50
48.58858926829232
 51
59.41141073170757
  0
ARC
  5
1000017D
102
{ACAD_XDICTIONARY
360
1000017E
102
}
330
1F
100
AcDbEntity
  8
VISIBLE
100
AcDbCircle
 10
5.048600892377101
 20
8.54059942097094
 30
0.0
 40
0.472
100
AcDbArc
 50
152.1879237894629
 51
239.4114107317072
  0
LINE
  5
10000183
102
{ACAD_XDICTIONARY
360
10000184
102
}
330
1F
100
AcDbEntity
  8
VISIBLE
100
AcDbLine
 10
4.63112507901621
 20
8.760821911327099
 30
0.0
 11
5.488033807479
 21
10.3852639372641
 31
0.0
  0
SPLINE
  5
10000187
102
{ACAD_XDICTIONARY
360
10000188
102
}
330
1F
100
AcDbEntity
  8
VISIBLE
100
AcDbSpline
210
0.0
220
0.0
230
1.0
 70
    12
 71
     5
 72
    81
 73
    75
 74
     0
 42
0.0000000001
 43
0.00000001
 40
0.0
 40
0.0
 40
0.0
 40
0.0
 40
0.0
 40
0.0
 40
0.0142857142857143
 40
0.0285714285714286
 40
0.0428571428571429
 40
0.0571428571428571
 40
0.0714285714285714
 40
0.0857142857142857
 40
0.1
 40
0.114285714285714
 40
0.128571428571429
 40
0.142857142857143
 40
0.157142857142857
 40
0.171428571428571
 40
0.185714285714286
 40
0.2
 40
0.214285714285714
 40
0.228571428571429
 40
0.242857142857143
 40
0.257142857142857
 40
0.271428571428571
 40
0.285714285714286
 40
0.3
 40
0.314285714285714
 40
0.328571428571429
 40
0.342857142857143
 40
0.357142857142857
 40
0.371428571428571
 40
0.385714285714286
 40
0.4
 40
0.414285714285714
 40
0.428571428571429
 40
0.442857142857143
 40
0.457142857142857
 40
0.471428571428572
 40
0.485714285714286
 40
0.5
 40
0.514285714285714
 40
0.528571428571429
 40
0.542857142857143
 40
0.5571428571428569
 40
0.571428571428571
 40
0.585714285714286
 40
0.6
 40
0.614285714285714
 40
0.628571428571428
 40
0.642857142857142
 40
0.6571428571428569
 40
0.6714285714285709
 40
0.6857142857142849
 40
0.7
 40
0.714285714285714
 40
0.728571428571428
 40
0.742857142857142
 40
0.7571428571428559
 40
0.7714285714285709
 40
0.7857142857142849
 40
0.8
 40
0.8142857142857131
 40
0.8285714285714281
 40
0.842857142857142
 40
0.857142857142856
 40
0.87142857142857
 40
0.885714285714284
 40
0.9
 40
0.914285714285713
 40
0.928571428571427
 40
0.9428571428571411
 40
0.957142857142856
 40
0.97142857142857
 40
0.985714285714284
 40
1.0
 40
1.0
 40
1.0
 40
1.0
 40
1.0
 40
1.0
 10
5.488033807479
 20
10.3852639372641
 30
0.0
 41
1.0
 10
5.4925749720181
 20
10.3938726236725
 30
0.0
 41
1.0
 10
5.50135372322865
 20
10.4112234397953
 30
0.0
 41
1.0
 10
5.51361113281729
 20
10.4376499870665
 30
0.0
 41
1.0
 10
5.528224234572099
 20
10.4736471962464
 30
0.0
 41
1.0
 10
5.544135227611191
 20
10.5196881635976
 30
0.0
 41
1.0
 10
5.55835835634656
 20
10.5664877415216
 30
0.0
 41
1.0
 10
5.57154769388417
 20
10.6137638328238
 30
0.0
 41
1.0
 10
5.584174137804251
 20
10.6613094914083
 30
0.0
 41
1.0
 10
5.59640386121262
 20
10.7090442371483
 30
0.0
 41
1.0
 10
5.60820663843498
 20
10.7569694966985
 30
0.0
 41
1.0
 10
5.61943603549937
 20
10.8051358045807
 30
0.0
 41
1.0
 10
5.62991509015861
 20
10.853607651394
 30
0.0
 41
1.0
 10
5.63953205397086
 20
10.9024242917144
 30
0.0
 41
1.0
 10
5.648290448898971
 20
10.9515791175527
 30
0.0
 41
1.0
 10
5.656259626915751
 20
11.0010395285571
 30
0.0
 41
1.0
 10
5.663545176046591
 20
11.0507587151397
 30
0.0
 41
1.0
 10
5.6702541659133
 20
11.1006895644133
 30
0.0
 41
1.0
 10
5.67645605642863
 20
11.1508002797166
 30
0.0
 41
1.0
 10
5.68216995024297
 20
11.2010794596698
 30
0.0
 41
1.0
 10
5.687385815440479
 20
11.251527568035
 30
0.0
 41
1.0
 10
5.69207742096699
 20
11.3021517242869
 30
0.0
 41
1.0
 10
5.696217371037701
 20
11.3529596545589
 30
0.0
 41
1.0
 10
5.6997943179527
 20
11.4039527670237
 30
0.0
 41
1.0
 10
5.70281624997832
 20
11.455124819245
 30
0.0
 41
1.0
 10
5.70530183830446
 20
11.5064653802514
 30
0.0
 41
1.0
 10
5.707275019462791
 20
11.5579619937263
 30
0.0
 41
1.0
 10
5.70875878409958
 20
11.6096026606333
 30
0.0
 41
1.0
 10
5.709768003051639
 20
11.661378707546
 30
0.0
 41
1.0
 10
5.71030883558232
 20
11.7132850176173
 30
0.0
 41
1.0
 10
5.71038233146593
 20
11.765318581113
 30
0.0
 41
1.0
 10
5.709986839876491
 20
11.8174775244499
 30
0.0
 41
1.0
 10
5.70912069151626
 20
11.8697600302622
 30
0.0
 41
1.0
 10
5.70778531838817
 20
11.9221630820038
 30
0.0
 41
1.0
 10
5.705985369620629
 20
11.974682414889
 30
0.0
 41
1.0
 10
5.703727243009721
 20
12.0273131031154
 30
0.0
 41
1.0
 10
5.70101808289063
 20
12.0800499604441
 30
0.0
 41
1.0
 10
5.69786467962644
 20
12.1328879803683
 30
0.0
 41
1.0
 10
5.69427218617745
 20
12.1858228509317
 30
0.0
 41
1.0
 10
5.690244113581859
 20
12.2388509528471
 30
0.0
 41
1.0
 10
5.6857829616109
 20
12.2919691014119
 30
0.0
 41
1.0
 10
5.68089066640379
 20
12.3451743626871
 30
0.0
 41
1.0
 10
5.675569086143049
 20
12.3984638551417
 30
0.0
 41
1.0
 10
5.66982057473895
 20
12.451834515276
 30
0.0
 41
1.0
 10
5.66364800604897
 20
12.5052830899669
 30
0.0
 41
1.0
 10
5.657054507952379
 20
12.5588062483353
 30
0.0
 41
1.0
 10
5.65004328371796
 20
12.612400658905
 30
0.0
 41
1.0
 10
5.64261741705284
 20
12.6660630725029
 30
0.0
 41
1.0
 10
5.63477964559221
 20
12.7197904224269
 30
0.0
 41
1.0
 10
5.62653234504832
 20
12.7735798226994
 30
0.0
 41
1.0
 10
5.617877649477671
 20
12.8274285018605
 30
0.0
 41
1.0
 10
5.60881753630267
 20
12.8813337533652
 30
0.0
 41
1.0
 10
5.599353920104411
 20
12.9352928849482
 30
0.0
 41
1.0
 10
5.58948876668852
 20
12.9893031528332
 30
0.0
 41
1.0
 10
5.579224113050171
 20
13.0433617653043
 30
0.0
 41
1.0
 10
5.56856200637031
 20
13.0974659436477
 30
0.0
 41
1.0
 10
5.55750446725586
 20
13.1516129698765
 30
0.0
 41
1.0
 10
5.546053449518941
 20
13.2058002319599
 30
0.0
 41
1.0
 10
5.534210795545819
 20
13.2600252885241
 30
0.0
 41
1.0
 10
5.521978228732401
 20
13.314285856562
 30
0.0
 41
1.0
 10
5.50935739353642
 20
13.3685797048412
 30
0.0
 41
1.0
 10
5.49634988738092
 20
13.4229045658772
 30
0.0
 41
1.0
 10
5.48295729510779
 20
13.4772580515969
 30
0.0
 41
1.0
 10
5.469181233648531
 20
13.5316375395282
 30
0.0
 41
1.0
 10
5.455023367163131
 20
13.5860401620755
 30
0.0
 41
1.0
 10
5.440485353784189
 20
13.6404630200652
 30
0.0
 41
1.0
 10
5.42556880908818
 20
13.6949033529425
 30
0.0
 41
1.0
 10
5.410275265322249
 20
13.7493587192799
 30
0.0
 41
1.0
 10
5.3946061358507
 20
13.8038271895408
 30
0.0
 41
1.0
 10
5.37856267794109
 20
13.8583074848768
 30
0.0
 41
1.0
 10
5.36214594559189
 20
13.9127988247237
 30
0.0
 41
1.0
 10
5.34871458551503
 20
13.9564004154475
 30
0.0
 41
1.0
 10
5.33847368739898
 20
13.9891063374708
 30
0.0
 41
1.0
 10
5.33157205645281
 20
14.010912386599
 30
0.0
 41
1.0
 10
5.328102649595531
 20
14.0218159364389
 30
0.0
 41
1.0
  0
ARC
  5
1000018B
102
{ACAD_XDICTIONARY
360
1000018C
102
}
330
1F
100
AcDbEntity
  8
VISIBLE
100
AcDbCircle
 10
0.0000000000000082
 20
0.0000000000000253
 30
0.0
 40
15.0
100
AcDbArc
 50
69.19387814197262
 51
74.80612185802723
  0
SPLINE
  5
10000191
102
{ACAD_XDICTIONARY
360
10000192
102
}
330
1F
100
AcDbEntity
  8
VISIBLE
100
AcDbSpline
210
0.0
220
0.0
230
1.0
 70
    12
 71
     5
 72
    81
 73
    75
 74
     0
 42
0.0000000001
 43
0.00000001
 40
-1.0
 40
-1.0
 40
-1.0
 40
-1.0
 40
-1.0
 40
-1.0
 40
-0.985714285714284
 40
-0.97142857142857
 40
-0.957142857142856
 40
-0.9428571428571411
 40
-0.928571428571427
 40
-0.914285714285713
 40
-0.9
 40
-0.885714285714284
 40
-0.87142857142857
 40
-0.857142857142856
 40
-0.842857142857142
 40
-0.8285714285714281
 40
-0.8142857142857131
 40
-0.8
 40
-0.7857142857142849
 40
-0.7714285714285709
 40
-0.7571428571428559
 40
-0.742857142857142
 40
-0.728571428571428
 40
-0.714285714285714
 40
-0.7
 40
-0.6857142857142849
 40
-0.6714285714285709
 40
-0.6571428571428569
 40
-0.642857142857142
 40
-0.628571428571428
 40
-0.614285714285714
 40
-0.6
 40
-0.585714285714286
 40
-0.571428571428571
 40
-0.5571428571428569
 40
-0.542857142857143
 40
-0.528571428571429
 40
-0.514285714285714
 40
-0.5
 40
-0.485714285714286
 40
-0.471428571428572
 40
-0.457142857142857
 40
-0.442857142857143
 40
-0.428571428571429
 40
-0.414285714285714
 40
-0.4
 40
-0.385714285714286
 40
-0.371428571428571
 40
-0.357142857142857
 40
-0.342857142857143
 40
-0.328571428571429
 40
-0.314285714285714
 40
-0.3
 40
-0.285714285714286
 40
-0.271428571428571
 40
-0.257142857142857
 40
-0.242857142857143
 40
-0.228571428571429
 40
-0.214285714285714
 40
-0.2
 40
-0.185714285714286
 40
-0.171428571428571
 40
-0.157142857142857
 40
-0.142857142857143
 40
-0.128571428571429
 40
-0.114285714285714
 40
-0.1
 40
-0.0857142857142857
 40
-0.0714285714285714
 40
-0.0571428571428571
 40
-0.0428571428571429
 40
-0.0285714285714286
 40
-0.0142857142857143
 40
0.0
 40
0.0
 40
0.0
 40
0.0
 40
0.0
 40
0.0
 10
3.93129102650142
 20
14.4756675447093
 30
0.0
 41
1.0
 10
3.922075271599951
 20
14.4688856537747
 30
0.0
 41
1.0
 10
3.90367446078726
 20
14.4553008663367
 30
0.0
 41
1.0
 10
3.8761653415458
 20
14.434860668486
 30
0.0
 41
1.0
 10
3.83967077098206
 20
14.40748099598
 30
0.0
 41
1.0
 10
3.79436014957982
 20
14.3730460891634
 30
0.0
 41
1.0
 10
3.74935800534334
 20
14.338400712333
 30
0.0
 41
1.0
 10
3.70466564977953
 20
14.303544877454
 30
0.0
 41
1.0
 10
3.66028485172739
 20
14.268478880133
 30
0.0
 41
1.0
 10
3.61621788877577
 20
14.2332034506433
 30
0.0
 41
1.0
 10
3.57246743557383
 20
14.197719663509
 30
0.0
 41
1.0
 10
3.52903642176371
 20
14.1620288024537
 30
0.0
 41
1.0
 10
3.48592789289433
 20
14.1261322383322
 30
0.0
 41
1.0
 10
3.44314488082993
 20
14.0900313129096
 30
0.0
 41
1.0
 10
3.40069023514592
 20
14.0537271974018
 30
0.0
 41
1.0
 10
3.35856664168042
 20
14.0172208922537
 30
0.0
 41
1.0
 10
3.31677672556985
 20
13.9805132929572
 30
0.0
 41
1.0
 10
3.27532312869396
 20
13.9436052380293
 30
0.0
 41
1.0
 10
3.23420858722714
 20
13.9064975614746
 30
0.0
 41
1.0
 10
3.19343602669483
 20
13.8691911554788
 30
0.0
 41
1.0
 10
3.15300856307734
 20
13.8316869847971
 30
0.0
 41
1.0
 10
3.11292942867259
 20
13.7939860606441
 30
0.0
 41
1.0
 10
3.07320191297185
 20
13.7560894277438
 30
0.0
 41
1.0
 10
3.03382930486821
 20
13.7179981473261
 30
0.0
 41
1.0
 10
2.9948148074831
 20
13.6797132836812
 30
0.0
 41
1.0
 10
2.95616155221898
 20
13.6412358895347
 30
0.0
 41
1.0
 10
2.91787272971145
 20
13.602566992228
 30
0.0
 41
1.0
 10
2.87995169547171
 20
13.5637075795521
 30
0.0
 41
1.0
 10
2.84240206782634
 20
13.5246585899035
 30
0.0
 41
1.0
 10
2.80522786413116
 20
13.4854208951546
 30
0.0
 41
1.0
 10
2.76843348897358
 20
13.4459953113841
 30
0.0
 41
1.0
 10
2.7320234920451
 20
13.4063826509788
 30
0.0
 41
1.0
 10
2.69600236169475
 20
13.3665837701551
 30
0.0
 41
1.0
 10
2.66037433505994
 20
13.3265996115339
 30
0.0
 41
1.0
 10
2.62514311717394
 20
13.2864312699447
 30
0.0
 41
1.0
 10
2.59031190505949
 20
13.2460799843828
 30
0.0
 41
1.0
 10
2.55588398961212
 20
13.2055469904206
 30
0.0
 41
1.0
 10
2.52186326511056
 20
13.1648333952081
 30
0.0
 41
1.0
 10
2.4882546994079
 20
13.1239400630735
 30
0.0
 41
1.0
 10
2.45506499584101
 20
13.0828674536287
 30
0.0
 41
1.0
 10
2.42230259067987
 20
13.0416156259477
 30
0.0
 41
1.0
 10
2.38997631220778
 20
13.0001845764508
 30
0.0
 41
1.0
 10
2.35809423166446
 20
12.9585745296657
 30
0.0
 41
1.0
 10
2.32666261705202
 20
12.9167862031874
 30
0.0
 41
1.0
 10
2.29568439996643
 20
12.8748211957429
 30
0.0
 41
1.0
 10
2.26515929813829
 20
12.8326819588005
 30
0.0
 41
1.0
 10
2.2350870772859
 20
12.790370978452
 30
0.0
 41
1.0
 10
2.20547035577187
 20
12.7478900725818
 30
0.0
 41
1.0
 10
2.17631712415221
 20
12.7052397604818
 30
0.0
 41
1.0
 10
2.14764451129876
 20
12.6624183182429
 30
0.0
 41
1.0
 10
2.11947816989164
 20
12.6194219397266
 30
0.0
 41
1.0
 10
2.091844786631
 20
12.5762466327644
 30
0.0
 41
1.0
 10
2.06476559799786
 20
12.5328898615394
 30
0.0
 41
1.0
 10
2.0382507358476
 20
12.4893519809036
 30
0.0
 41
1.0
 10
2.01229019199479
 20
12.4456385216318
 30
0.0
 41
1.0
 10
1.98685726147685
 20
12.4017593359893
 30
0.0
 41
1.0
 10
1.96192653820282
 20
12.3577240824266
 30
0.0
 41
1.0
 10
1.9374896335899
 20
12.3135382823648
 30
0.0
 41
1.0
 10
1.91356870356968
 20
12.2691999314574
 30
0.0
 41
1.0
 10
1.89023863200067
 20
12.2246939262317
 30
0.0
 41
1.0
 10
1.86761373228674
 20
12.1799954478692
 30
0.0
 41
1.0
 10
1.84580694092024
 20
12.1350803030379
 30
0.0
 41
1.0
 10
1.82489352683186
 20
12.0899341019098
 30
0.0
 41
1.0
 10
1.80488022342791
 20
12.0445601203024
 30
0.0
 41
1.0
 10
1.78565355105907
 20
11.9989922846828
 30
0.0
 41
1.0
 10
1.76703243763688
 20
11.9532824368595
 30
0.0
 41
1.0
 10
1.74886871214285
 20
11.9074757652746
 30
0.0
 41
1.0
 10
1.73113708292622
 20
11.8615888819459
 30
0.0
 41
1.0
 10
1.71401929188522
 20
11.8155892225626
 30
0.0
 41
1.0
 10
1.69801794302812
 20
11.7693674233805
 30
0.0
 41
1.0
 10
1.68382800518381
 20
11.7227672512982
 30
0.0
 41
1.0
 10
1.67449162416431
 20
11.6850555316198
 30
0.0
 41
1.0
 10
1.66887494207354
 20
11.6564712811873
 30
0.0
 41
1.0
 10
1.66577854716005
 20
11.6372741555826
 30
0.0
 41
1.0
 10
1.66439236753393
 20
11.6276403524346
 30
0.0
 41
1.0
  0
LINE
  5
10000195
102
{ACAD_XDICTIONARY
360
10000196
102
}
330
1F
100
AcDbEntity
  8
VISIBLE
100
AcDbLine
 10
1.66439236753394
 20
11.6276403524346
 30
0.0
 11
1.402823025438696
 21
9.80976083392358
 31
0.0
  0
ARC
  5
10000199
102
{ACAD_XDICTIONARY
360
1000019A
102
}
330
1F
100
AcDbEntity
  8
VISIBLE
100
AcDbCircle
 10
0.9356344656347619
 20
9.8769832229642
 30
0.0
 40
0.472
100
AcDbArc
 50
264.5885892682924
 51
351.8120762105379
  0
ARC
  5
1000019F
102
{ACAD_XDICTIONARY
360
100001A0
102
}
330
1F
100
AcDbEntity
  8
VISIBLE
100
AcDbCircle
 10
0.0
 20
0.0
 30
0.0
 40
9.4492
100
AcDbArc
 50
84.58858926829238
 51
95.41141073170756
  0
ARC
  5
100001A5
102
{ACAD_XDICTIONARY
360
100001A6
102
}
330
1F
100
AcDbEntity
  8
VISIBLE
100
AcDbCircle
 10
-0.9356344656347589
 20
9.8769832229642
 30
0.0
 40
0.472
100
AcDbArc
 50
188.1879237894621
 51
275.4114107317076
  0
LINE
  5
100001AB
102
{ACAD_XDICTIONARY
360
100001AC
102
}
330
1F
100
AcDbEntity
  8
VISIBLE
100
AcDbLine
 10
-1.402823025438686
 20
9.80976083392358
 30
0.0
 11
-1.66439236753393
 21
11.6276403524346
 31
0.0
  0
SPLINE
  5
100001AF
102
{ACAD_XDICTIONARY
360
100001B0
102
}
330
1F
100
AcDbEntity
  8
VISIBLE
100
AcDbSpline
210
0.0
220
0.0
230
1.0
 70
    12
 71
     5
 72
    81
 73
    75
 74
     0
 42
0.0000000001
 43
0.00000001
 40
0.0
 40
0.0
 40
0.0
 40
0.0
 40
0.0
 40
0.0
 40
0.0142857142857143
 40
0.0285714285714286
 40
0.0428571428571429
 40
0.0571428571428571
 40
0.0714285714285714
 40
0.0857142857142857
 40
0.1
 40
0.114285714285714
 40
0.128571428571429
 40
0.142857142857143
 40
0.157142857142857
 40
0.171428571428571
 40
0.185714285714286
 40
0.2
 40
0.214285714285714
 40
0.228571428571429
 40
0.242857142857143
 40
0.257142857142857
 40
0.271428571428571
 40
0.285714285714286
 40
0.3
 40
0.314285714285714
 40
0.328571428571429
 40
0.342857142857143
 40
0.357142857142857
 40
0.371428571428571
 40
0.385714285714286
 40
0.4
 40
0.414285714285714
 40
0.428571428571429
 40
0.442857142857143
 40
0.457142857142857
 40
0.471428571428572
 40
0.485714285714286
 40
0.5
 40
0.514285714285714
 40
0.528571428571429
 40
0.542857142857143
 40
0.5571428571428569
 40
0.571428571428571
 40
0.585714285714286
 40
0.6
 40
0.614285714285714
 40
0.628571428571428
 40
0.642857142857142
 40
0.6571428571428569
 40
0.6714285714285709
 40
0.6857142857142849
 40
0.7
 40
0.714285714285714
 40
0.728571428571428
 40
0.742857142857142
 40
0.7571428571428559
 40
0.7714285714285709
 40
0.7857142857142849
 40
0.8
 40
0.8142857142857131
 40
0.8285714285714281
 40
0.842857142857142
 40
0.857142857142856
 40
0.87142857142857
 40
0.885714285714284
 40
0.9
 40
0.914285714285713
 40
0.928571428571427
 40
0.9428571428571411
 40
0.957142857142856
 40
0.97142857142857
 40
0.985714285714284
 40
1.0
 40
1.0
 40
1.0
 40
1.0
 40
1.0
 40
1.0
 10
-1.66439236753393
 20
11.6276403524346
 30
0.0
 41
1.0
 10
-1.66577854716005
 20
11.6372741555826
 30
0.0
 41
1.0
 10
-1.66887494207353
 20
11.6564712811873
 30
0.0
 41
1.0
 10
-1.67449162416431
 20
11.6850555316198
 30
0.0
 41
1.0
 10
-1.68382800518381
 20
11.7227672512982
 30
0.0
 41
1.0
 10
-1.69801794302812
 20
11.7693674233805
 30
0.0
 41
1.0
 10
-1.71401929188521
 20
11.8155892225626
 30
0.0
 41
1.0
 10
-1.73113708292622
 20
11.8615888819459
 30
0.0
 41
1.0
 10
-1.74886871214284
 20
11.9074757652746
 30
0.0
 41
1.0
 10
-1.76703243763687
 20
11.9532824368595
 30
0.0
 41
1.0
 10
-1.78565355105906
 20
11.9989922846828
 30
0.0
 41
1.0
 10
-1.80488022342791
 20
12.0445601203024
 30
0.0
 41
1.0
 10
-1.82489352683185
 20
12.0899341019098
 30
0.0
 41
1.0
 10
-1.84580694092024
 20
12.1350803030379
 30
0.0
 41
1.0
 10
-1.86761373228674
 20
12.1799954478692
 30
0.0
 41
1.0
 10
-1.89023863200067
 20
12.2246939262317
 30
0.0
 41
1.0
 10
-1.91356870356967
 20
12.2691999314574
 30
0.0
 41
1.0
 10
-1.9374896335899
 20
12.3135382823648
 30
0.0
 41
1.0
 10
-1.96192653820281
 20
12.3577240824266
 30
0.0
 41
1.0
 10
-1.98685726147685
 20
12.4017593359893
 30
0.0
 41
1.0
 10
-2.01229019199479
 20
12.4456385216318
 30
0.0
 41
1.0
 10
-2.03825073584759
 20
12.4893519809036
 30
0.0
 41
1.0
 10
-2.06476559799786
 20
12.5328898615394
 30
0.0
 41
1.0
 10
-2.091844786631
 20
12.5762466327644
 30
0.0
 41
1.0
 10
-2.11947816989163
 20
12.6194219397266
 30
0.0
 41
1.0
 10
-2.14764451129875
 20
12.6624183182429
 30
0.0
 41
1.0
 10
-2.17631712415221
 20
12.7052397604818
 30
0.0
 41
1.0
 10
-2.20547035577187
 20
12.7478900725818
 30
0.0
 41
1.0
 10
-2.2350870772859
 20
12.790370978452
 30
0.0
 41
1.0
 10
-2.26515929813829
 20
12.8326819588005
 30
0.0
 41
1.0
 10
-2.29568439996643
 20
12.8748211957429
 30
0.0
 41
1.0
 10
-2.32666261705202
 20
12.9167862031874
 30
0.0
 41
1.0
 10
-2.35809423166446
 20
12.9585745296657
 30
0.0
 41
1.0
 10
-2.38997631220778
 20
13.0001845764508
 30
0.0
 41
1.0
 10
-2.42230259067987
 20
13.0416156259477
 30
0.0
 41
1.0
 10
-2.45506499584101
 20
13.0828674536287
 30
0.0
 41
1.0
 10
-2.4882546994079
 20
13.1239400630735
 30
0.0
 41
1.0
 10
-2.52186326511055
 20
13.1648333952081
 30
0.0
 41
1.0
 10
-2.55588398961212
 20
13.2055469904206
 30
0.0
 41
1.0
 10
-2.59031190505949
 20
13.2460799843828
 30
0.0
 41
1.0
 10
-2.62514311717394
 20
13.2864312699447
 30
0.0
 41
1.0
 10
-2.66037433505993
 20
13.3265996115339
 30
0.0
 41
1.0
 10
-2.69600236169475
 20
13.3665837701551
 30
0.0
 41
1.0
 10
-2.73202349204509
 20
13.4063826509788
 30
0.0
 41
1.0
 10
-2.76843348897358
 20
13.4459953113841
 30
0.0
 41
1.0
 10
-2.80522786413116
 20
13.4854208951546
 30
0.0
 41
1.0
 10
-2.84240206782634
 20
13.5246585899035
 30
0.0
 41
1.0
 10
-2.8799516954717
 20
13.5637075795521
 30
0.0
 41
1.0
 10
-2.91787272971144
 20
13.602566992228
 30
0.0
 41
1.0
 10
-2.95616155221898
 20
13.6412358895347
 30
0.0
 41
1.0
 10
-2.99481480748309
 20
13.6797132836812
 30
0.0
 41
1.0
 10
-3.0338293048682
 20
13.7179981473261
 30
0.0
 41
1.0
 10
-3.07320191297185
 20
13.7560894277438
 30
0.0
 41
1.0
 10
-3.11292942867258
 20
13.7939860606441
 30
0.0
 41
1.0
 10
-3.15300856307733
 20
13.8316869847971
 30
0.0
 41
1.0
 10
-3.19343602669483
 20
13.8691911554788
 30
0.0
 41
1.0
 10
-3.23420858722713
 20
13.9064975614746
 30
0.0
 41
1.0
 10
-3.27532312869395
 20
13.9436052380293
 30
0.0
 41
1.0
 10
-3.31677672556985
 20
13.9805132929572
 30
0.0
 41
1.0
 10
-3.35856664168042
 20
14.0172208922537
 30
0.0
 41
1.0
 10
-3.40069023514591
 20
14.0537271974018
 30
0.0
 41
1.0
 10
-3.44314488082992
 20
14.0900313129096
 30
0.0
 41
1.0
 10
-3.48592789289433
 20
14.1261322383322
 30
0.0
 41
1.0
 10
-3.5290364217637
 20
14.1620288024537
 30
0.0
 41
1.0
 10
-3.57246743557382
 20
14.197719663509
 30
0.0
 41
1.0
 10
-3.61621788877577
 20
14.2332034506433
 30
0.0
 41
1.0
 10
-3.66028485172739
 20
14.268478880133
 30
0.0
 41
1.0
 10
-3.70466564977953
 20
14.303544877454
 30
0.0
 41
1.0
 10
-3.74935800534333
 20
14.338400712333
 30
0.0
 41
1.0
 10
-3.79436014957982
 20
14.3730460891634
 30
0.0
 41
1.0
 10
-3.83967077098205
 20
14.40748099598
 30
0.0
 41
1.0
 10
-3.8761653415458
 20
14.434860668486
 30
0.0
 41
1.0
 10
-3.90367446078725
 20
14.4553008663367
 30
0.0
 41
1.0
 10
-3.922075271599951
 20
14.4688856537747
 30
0.0
 41
1.0
 10
-3.93129102650142
 20
14.4756675447093
 30
0.0
 41
1.0
  0
ARC
  5
100001B3
102
{ACAD_XDICTIONARY
360
100001B4
102
}
330
1F
100
AcDbEntity
  8
VISIBLE
100
AcDbCircle
 10
-0.0000000000000082
 20
0.0000000000000253
 30
0.0
 40
15.0
100
AcDbArc
 50
105.1938781419727
 51
110.8061218580272
  0
SPLINE
  5
100001B9
102
{ACAD_XDICTIONARY
360
100001BA
102
}
330
1F
100
AcDbEntity
  8
VISIBLE
100
AcDbSpline
210
0.0
220
0.0
230
1.0
 70
    12
 71
     5
 72
    81
 73
    75
 74
     0
 42
0.0000000001
 43
0.00000001
 40
-1.0
 40
-1.0
 40
-1.0
 40
-1.0
 40
-1.0
 40
-1.0
 40
-0.985714285714284
 40
-0.97142857142857
 40
-0.957142857142856
 40
-0.9428571428571411
 40
-0.928571428571427
 40
-0.914285714285713
 40
-0.9
 40
-0.885714285714284
 40
-0.87142857142857
 40
-0.857142857142856
 40
-0.842857142857142
 40
-0.8285714285714281
 40
-0.8142857142857131
 40
-0.8
 40
-0.7857142857142849
 40
-0.7714285714285709
 40
-0.7571428571428559
 40
-0.742857142857142
 40
-0.728571428571428
 40
-0.714285714285714
 40
-0.7
 40
-0.6857142857142849
 40
-0.6714285714285709
 40
-0.6571428571428569
 40
-0.642857142857142
 40
-0.628571428571428
 40
-0.614285714285714
 40
-0.6
 40
-0.585714285714286
 40
-0.571428571428571
 40
-0.5571428571428569
 40
-0.542857142857143
 40
-0.528571428571429
 40
-0.514285714285714
 40
-0.5
 40
-0.485714285714286
 40
-0.471428571428572
 40
-0.457142857142857
 40
-0.442857142857143
 40
-0.428571428571429
 40
-0.414285714285714
 40
-0.4
 40
-0.385714285714286
 40
-0.371428571428571
 40
-0.357142857142857
 40
-0.342857142857143
 40
-0.328571428571429
 40
-0.314285714285714
 40
-0.3
 40
-0.285714285714286
 40
-0.271428571428571
 40
-0.257142857142857
 40
-0.242857142857143
 40
-0.228571428571429
 40
-0.214285714285714
 40
-0.2
 40
-0.185714285714286
 40
-0.171428571428571
 40
-0.157142857142857
 40
-0.142857142857143
 40
-0.128571428571429
 40
-0.114285714285714
 40
-0.1
 40
-0.0857142857142857
 40
-0.0714285714285714
 40
-0.0571428571428571
 40
-0.0428571428571429
 40
-0.0285714285714286
 40
-0.0142857142857143
 40
0.0
 40
0.0
 40
0.0
 40
0.0
 40
0.0
 40
0.0
 10
-5.328102649595531
 20
14.0218159364389
 30
0.0
 41
1.0
 10
-5.33157205645281
 20
14.010912386599
 30
0.0
 41
1.0
 10
-5.33847368739898
 20
13.9891063374708
 30
0.0
 41
1.0
 10
-5.348714585515021
 20
13.9564004154475
 30
0.0
 41
1.0
 10
-5.36214594559189
 20
13.9127988247237
 30
0.0
 41
1.0
 10
-5.37856267794109
 20
13.8583074848768
 30
0.0
 41
1.0
 10
-5.394606135850689
 20
13.8038271895408
 30
0.0
 41
1.0
 10
-5.41027526532224
 20
13.7493587192799
 30
0.0
 41
1.0
 10
-5.42556880908817
 20
13.6949033529425
 30
0.0
 41
1.0
 10
-5.440485353784189
 20
13.6404630200652
 30
0.0
 41
1.0
 10
-5.45502336716312
 20
13.5860401620755
 30
0.0
 41
1.0
 10
-5.469181233648531
 20
13.5316375395282
 30
0.0
 41
1.0
 10
-5.48295729510778
 20
13.4772580515969
 30
0.0
 41
1.0
 10
-5.49634988738092
 20
13.4229045658772
 30
0.0
 41
1.0
 10
-5.50935739353642
 20
13.3685797048412
 30
0.0
 41
1.0
 10
-5.521978228732401
 20
13.314285856562
 30
0.0
 41
1.0
 10
-5.53421079554581
 20
13.2600252885241
 30
0.0
 41
1.0
 10
-5.546053449518941
 20
13.2058002319599
 30
0.0
 41
1.0
 10
-5.55750446725586
 20
13.1516129698765
 30
0.0
 41
1.0
 10
-5.5685620063703
 20
13.0974659436477
 30
0.0
 41
1.0
 10
-5.57922411305016
 20
13.0433617653043
 30
0.0
 41
1.0
 10
-5.589488766688509
 20
12.9893031528332
 30
0.0
 41
1.0
 10
-5.5993539201044
 20
12.9352928849482
 30
0.0
 41
1.0
 10
-5.608817536302659
 20
12.8813337533652
 30
0.0
 41
1.0
 10
-5.61787764947766
 20
12.8274285018605
 30
0.0
 41
1.0
 10
-5.62653234504832
 20
12.7735798226994
 30
0.0
 41
1.0
 10
-5.634779645592201
 20
12.7197904224269
 30
0.0
 41
1.0
 10
-5.64261741705283
 20
12.6660630725029
 30
0.0
 41
1.0
 10
-5.65004328371796
 20
12.612400658905
 30
0.0
 41
1.0
 10
-5.657054507952379
 20
12.5588062483353
 30
0.0
 41
1.0
 10
-5.66364800604897
 20
12.5052830899669
 30
0.0
 41
1.0
 10
-5.66982057473895
 20
12.451834515276
 30
0.0
 41
1.0
 10
-5.675569086143049
 20
12.3984638551417
 30
0.0
 41
1.0
 10
-5.68089066640378
 20
12.3451743626871
 30
0.0
 41
1.0
 10
-5.68578296161089
 20
12.2919691014119
 30
0.0
 41
1.0
 10
-5.69024411358185
 20
12.2388509528471
 30
0.0
 41
1.0
 10
-5.69427218617745
 20
12.1858228509317
 30
0.0
 41
1.0
 10
-5.69786467962644
 20
12.1328879803683
 30
0.0
 41
1.0
 10
-5.70101808289062
 20
12.0800499604441
 30
0.0
 41
1.0
 10
-5.703727243009721
 20
12.0273131031154
 30
0.0
 41
1.0
 10
-5.70598536962062
 20
11.974682414889
 30
0.0
 41
1.0
 10
-5.70778531838817
 20
11.9221630820038
 30
0.0
 41
1.0
 10
-5.70912069151626
 20
11.8697600302622
 30
0.0
 41
1.0
 10
-5.709986839876491
 20
11.8174775244499
 30
0.0
 41
1.0
 10
-5.71038233146593
 20
11.765318581113
 30
0.0
 41
1.0
 10
-5.71030883558232
 20
11.7132850176173
 30
0.0
 41
1.0
 10
-5.709768003051639
 20
11.661378707546
 30
0.0
 41
1.0
 10
-5.70875878409958
 20
11.6096026606333
 30
0.0
 41
1.0
 10
-5.707275019462781
 20
11.5579619937263
 30
0.0
 41
1.0
 10
-5.705301838304449
 20
11.5064653802514
 30
0.0
 41
1.0
 10
-5.70281624997831
 20
11.455124819245
 30
0.0
 41
1.0
 10
-5.6997943179527
 20
11.4039527670237
 30
0.0
 41
1.0
 10
-5.69621737103769
 20
11.3529596545589
 30
0.0
 41
1.0
 10
-5.692077420966981
 20
11.3021517242869
 30
0.0
 41
1.0
 10
-5.68738581544047
 20
11.251527568035
 30
0.0
 41
1.0
 10
-5.68216995024296
 20
11.2010794596698
 30
0.0
 41
1.0
 10
-5.67645605642863
 20
11.1508002797166
 30
0.0
 41
1.0
 10
-5.6702541659133
 20
11.1006895644133
 30
0.0
 41
1.0
 10
-5.66354517604658
 20
11.0507587151397
 30
0.0
 41
1.0
 10
-5.656259626915751
 20
11.0010395285571
 30
0.0
 41
1.0
 10
-5.64829044889896
 20
10.9515791175527
 30
0.0
 41
1.0
 10
-5.63953205397086
 20
10.9024242917144
 30
0.0
 41
1.0
 10
-5.62991509015861
 20
10.853607651394
 30
0.0
 41
1.0
 10
-5.61943603549937
 20
10.8051358045807
 30
0.0
 41
1.0
 10
-5.60820663843498
 20
10.7569694966985
 30
0.0
 41
1.0
 10
-5.59640386121262
 20
10.7090442371483
 30
0.0
 41
1.0
 10
-5.58417413780424
 20
10.6613094914083
 30
0.0
 41
1.0
 10
-5.57154769388417
 20
10.6137638328238
 30
0.0
 41
1.0
 10
-5.55835835634655
 20
10.5664877415216
 30
0.0
 41
1.0
 10
-5.54413522761118
 20
10.5196881635976
 30
0.0
 41
1.0
 10
-5.52822423457209
 20
10.4736471962464
 30
0.0
 41
1.0
 10
-5.51361113281729
 20
10.4376499870665
 30
0.0
 41
1.0
 10
-5.50135372322864
 20
10.4112234397953
 30
0.0
 41
1.0
 10
-5.492574972018089
 20
10.3938726236725
 30
0.0
 41
1.0
 10
-5.48803380747899
 20
10.3852639372641
 30
0.0
 41
1.0
  0
LINE
  5
100001BD
102
{ACAD_XDICTIONARY
360
100001BE
102
}
330
1F
100
AcDbEntity
  8
VISIBLE
100
AcDbLine
 10
-5.488033807479
 20
10.3852639372641
 30
0.0
 11
-4.631125079016201
 21
8.760821911327099
 31
0.0
  0
ARC
  5
100001C1
102
{ACAD_XDICTIONARY
360
100001C2
102
}
330
1F
100
AcDbEntity
  8
VISIBLE
100
AcDbCircle
 10
-5.04860089237709
 20
8.54059942097095
 30
0.0
 40
0.472
100
AcDbArc
 50
300.5885892682916
 51
27.81207621053548
  0
ARC
  5
100001C7
102
{ACAD_XDICTIONARY
360
100001C8
102
}
330
1F
100
AcDbEntity
  8
VISIBLE
100
AcDbCircle
 10
0.0
 20
0.0
 30
0.0
 40
9.4492
100
AcDbArc
 50
120.5885892682923
 51
131.4114107317076
  0
ARC
  5
100001CD
102
{ACAD_XDICTIONARY
360
100001CE
102
}
330
1F
100
AcDbEntity
  8
VISIBLE
100
AcDbCircle
 10
-6.562489258819981
 20
7.44069514009762
 30
0.0
 40
0.472
100
AcDbArc
 50
224.1879237894628
 51
311.4114107317079
  0
LINE
  5
100001D3
102
{ACAD_XDICTIONARY
360
100001D4
102
}
330
1F
100
AcDbEntity
  8
VISIBLE
100
AcDbLine
 10
-6.900940414376969
 20
7.111704539468761
 30
0.0
 11
-8.1810772287648
 21
8.42865336193488
 31
0.0
  0
SPLINE
  5
100001D7
102
{ACAD_XDICTIONARY
360
100001D8
102
}
330
1F
100
AcDbEntity
  8
VISIBLE
100
AcDbSpline
210
0.0
220
0.0
230
1.0
 70
    12
 71
     5
 72
    81
 73
    75
 74
     0
 42
0.0000000001
 43
0.00000001
 40
0.0
 40
0.0
 40
0.0
 40
0.0
 40
0.0
 40
0.0
 40
0.0142857142857143
 40
0.0285714285714286
 40
0.0428571428571429
 40
0.0571428571428571
 40
0.0714285714285714
 40
0.0857142857142857
 40
0.1
 40
0.114285714285714
 40
0.128571428571429
 40
0.142857142857143
 40
0.157142857142857
 40
0.171428571428571
 40
0.185714285714286
 40
0.2
 40
0.214285714285714
 40
0.228571428571429
 40
0.242857142857143
 40
0.257142857142857
 40
0.271428571428571
 40
0.285714285714286
 40
0.3
 40
0.314285714285714
 40
0.328571428571429
 40
0.342857142857143
 40
0.357142857142857
 40
0.371428571428571
 40
0.385714285714286
 40
0.4
 40
0.414285714285714
 40
0.428571428571429
 40
0.442857142857143
 40
0.457142857142857
 40
0.471428571428572
 40
0.485714285714286
 40
0.5
 40
0.514285714285714
 40
0.528571428571429
 40
0.542857142857143
 40
0.5571428571428569
 40
0.571428571428571
 40
0.585714285714286
 40
0.6
 40
0.614285714285714
 40
0.628571428571428
 40
0.642857142857142
 40
0.6571428571428569
 40
0.6714285714285709
 40
0.6857142857142849
 40
0.7
 40
0.714285714285714
 40
0.728571428571428
 40
0.742857142857142
 40
0.7571428571428559
 40
0.7714285714285709
 40
0.7857142857142849
 40
0.8
 40
0.8142857142857131
 40
0.8285714285714281
 40
0.842857142857142
 40
0.857142857142856
 40
0.87142857142857
 40
0.885714285714284
 40
0.9
 40
0.914285714285713
 40
0.928571428571427
 40
0.9428571428571411
 40
0.957142857142856
 40
0.97142857142857
 40
0.985714285714284
 40
1.0
 40
1.0
 40
1.0
 40
1.0
 40
1.0
 40
1.0
 10
-8.18107722876481
 20
8.42865336193488
 30
0.0
 41
1.0
 10
-8.187861279053479
 20
8.435632496460821
 30
0.0
 41
1.0
 10
-8.201650102476629
 20
8.44934328205276
 30
0.0
 41
1.0
 10
-8.222995494592158
 20
8.46916702352438
 30
0.0
 41
1.0
 10
-8.252715178168428
 20
8.49418865855825
 30
0.0
 41
1.0
 10
-8.29158597293786
 20
8.523548353517791
 30
0.0
 41
1.0
 10
-8.33169982798986
 20
8.55153721769174
 30
0.0
 41
1.0
 10
-8.37258633324414
 20
8.57869013874251
 30
0.0
 41
1.0
 10
-8.41390315591262
 20
8.60539101702168
 30
0.0
 41
1.0
 10
-8.45552240453266
 20
8.63177302281754
 30
0.0
 41
1.0
 10
-8.49745477618049
 20
8.65780785066609
 30
0.0
 41
1.0
 10
-8.53979358262823
 20
8.68337184961013
 30
0.0
 41
1.0
 10
-8.58265484242222
 20
8.708316647242478
 30
0.0
 41
1.0
 10
-8.62611042105028
 20
8.73254809481037
 30
0.0
 41
1.0
 10
-8.67015294559496
 20
8.75606749991862
 30
0.0
 41
1.0
 10
-8.714729980340941
 20
8.778930746150131
 30
0.0
 41
1.0
 10
-8.75976437823039
 20
8.801223788726311
 30
0.0
 41
1.0
 10
-8.805178245912339
 20
8.82303389822593
 30
0.0
 41
1.0
 10
-8.8509198786712
 20
8.844417309242871
 30
0.0
 41
1.0
 10
-8.896972530107039
 20
8.865388666257209
 30
0.0
 41
1.0
 10
-8.94333974131609
 20
8.885938571660319
 30
0.0
 41
1.0
 10
-8.990036389162881
 20
8.90604427827595
 30
0.0
 41
1.0
 10
-9.03707828739974
 20
8.925682118670869
 30
0.0
 41
1.0
 10
-9.08447028191093
 20
8.94484173569055
 30
0.0
 41
1.0
 10
-9.1322039672764
 20
8.96352879760873
 30
0.0
 41
1.0
 10
-9.180263653337999
 20
8.981757838434849
 30
0.0
 41
1.0
 10
-9.228630096639481
 20
8.9995477739498
 30
0.0
 41
1.0
 10
-9.277284780918782
 20
9.016916761651391
 30
0.0
 41
1.0
 10
-9.326214861915888
 20
9.0338762643097
 30
0.0
 41
1.0
 10
-9.375413569902921
 20
9.05043055853955
 30
0.0
 41
1.0
 10
-9.424877718054521
 20
9.06657971267663
 30
0.0
 41
1.0
 10
-9.47460603462044
 20
9.08232157772311
 30
0.0
 41
1.0
 10
-9.524597307024418
 20
9.097654004485541
 30
0.0
 41
1.0
 10
-9.574848223847479
 20
9.11257742271566
 30
0.0
 41
1.0
 10
-9.62535329237759
 20
9.12709493610605
 30
0.0
 41
1.0
 10
-9.67610585087059
 20
9.141211107165718
 30
0.0
 41
1.0
 10
-9.72709875919926
 20
9.15493112792527
 30
0.0
 41
1.0
 10
-9.7783251575551
 20
9.16825990930807
 30
0.0
 41
1.0
 10
-9.82977935267154
 20
9.181201019602781
 30
0.0
 41
1.0
 10
-9.881456817431609
 20
9.19375667958395
 30
0.0
 41
1.0
 10
-9.933353750531179
 20
9.20592828254803
 30
0.0
 41
1.0
 10
-9.985466763328661
 20
9.217716763235869
 30
0.0
 41
1.0
 10
-10.0377925411151
 20
9.22912299844199
 30
0.0
 41
1.0
 10
-10.0903274429311
 20
9.24014828019464
 30
0.0
 41
1.0
 10
-10.1430674868017
 20
9.25079433642435
 30
0.0
 41
1.0
 10
-10.1960085383049
 20
9.26106311262286
 30
0.0
 41
1.0
 10
-10.249146439154
 20
9.27095662579705
 30
0.0
 41
1.0
 10
-10.3024771462839
 20
9.280476804676999
 30
0.0
 41
1.0
 10
-10.3559968971118
 20
9.28962530524537
 30
0.0
 41
1.0
 10
-10.4097022127743
 20
9.298403495122699
 30
0.0
 41
1.0
 10
-10.4635897979968
 20
9.30681254748909
 30
0.0
 41
1.0
 10
-10.5176564676449
 20
9.31485350661664
 30
0.0
 41
1.0
 10
-10.5718990695841
 20
9.32252736142444
 30
0.0
 41
1.0
 10
-10.6263143868605
 20
9.32983513363121
 30
0.0
 41
1.0
 10
-10.6808991349288
 20
9.33677789784687
 30
0.0
 41
1.0
 10
-10.735650038461
 20
9.34335674238635
 30
0.0
 41
1.0
 10
-10.7905638880961
 20
9.34957274905693
 30
0.0
 41
1.0
 10
-10.8456375958844
 20
9.35542696888245
 30
0.0
 41
1.0
 10
-10.9008682706124
 20
9.360920399650349
 30
0.0
 41
1.0
 10
-10.9562532084529
 20
9.36605397491958
 30
0.0
 41
1.0
 10
-11.0117897792124
 20
9.370828569173671
 30
0.0
 41
1.0
 10
-11.0674753327539
 20
9.37524500096089
 30
0.0
 41
1.0
 10
-11.1233071081421
 20
9.37930403960033
 30
0.0
 41
1.0
 10
-11.1792821115985
 20
9.383006412496831
 30
0.0
 41
1.0
 10
-11.2353971016237
 20
9.386352816224731
 30
0.0
 41
1.0
 10
-11.2916488085488
 20
9.38934393186797
 30
0.0
 41
1.0
 10
-11.3480341076895
 20
9.39198044287274
 30
0.0
 41
1.0
 10
-11.4045502036197
 20
9.394263052050071
 30
0.0
 41
1.0
 10
-11.4611948244877
 20
9.396192507329692
 30
0.0
 41
1.0
 10
-11.5179663655194
 20
9.39776960925826
 30
0.0
 41
1.0
 10
-11.5748637586504
 20
9.39899511904022
 30
0.0
 41
1.0
 10
-11.6204818541505
 20
9.399694769031871
 30
0.0
 41
1.0
 10
-11.6547516459677
 20
9.40006178186778
 30
0.0
 41
1.0
 10
-11.677623152337
 20
9.40023638054416
 30
0.0
 41
1.0
 10
-11.6890651501423
 20
9.40030616074441
 30
0.0
 41
1.0
  0
ARC
  5
100001DB
102
{ACAD_XDICTIONARY
360
100001DC
102
}
330
1F
100
AcDbEntity
  8
VISIBLE
100
AcDbCircle
 10
-0.0000000000000216
 20
0.0000000000000157
 30
0.0
 40
15.0
100
AcDbArc
 50
141.1938781419727
 51
146.8061218580272
  0
SPLINE
  5
100001E1
102
{ACAD_XDICTIONARY
360
100001E2
102
}
330
1F
100
AcDbEntity
  8
VISIBLE
100
AcDbSpline
210
0.0
220
0.0
230
1.0
 70
    12
 71
     5
 72
    81
 73
    75
 74
     0
 42
0.0000000001
 43
0.00000001
 40
-1.0
 40
-1.0
 40
-1.0
 40
-1.0
 40
-1.0
 40
-1.0
 40
-0.985714285714284
 40
-0.97142857142857
 40
-0.957142857142856
 40
-0.9428571428571411
 40
-0.928571428571427
 40
-0.914285714285713
 40
-0.9
 40
-0.885714285714284
 40
-0.87142857142857
 40
-0.857142857142856
 40
-0.842857142857142
 40
-0.8285714285714281
 40
-0.8142857142857131
 40
-0.8
 40
-0.7857142857142849
 40
-0.7714285714285709
 40
-0.7571428571428559
 40
-0.742857142857142
 40
-0.728571428571428
 40
-0.714285714285714
 40
-0.7
 40
-0.6857142857142849
 40
-0.6714285714285709
 40
-0.6571428571428569
 40
-0.642857142857142
 40
-0.628571428571428
 40
-0.614285714285714
 40
-0.6
 40
-0.585714285714286
 40
-0.571428571428571
 40
-0.5571428571428569
 40
-0.542857142857143
 40
-0.528571428571429
 40
-0.514285714285714
 40
-0.5
 40
-0.485714285714286
 40
-0.471428571428572
 40
-0.457142857142857
 40
-0.442857142857143
 40
-0.428571428571429
 40
-0.414285714285714
 40
-0.4
 40
-0.385714285714286
 40
-0.371428571428571
 40
-0.357142857142857
 40
-0.342857142857143
 40
-0.328571428571429
 40
-0.314285714285714
 40
-0.3
 40
-0.285714285714286
 40
-0.271428571428571
 40
-0.257142857142857
 40
-0.242857142857143
 40
-0.228571428571429
 40
-0.214285714285714
 40
-0.2
 40
-0.185714285714286
 40
-0.171428571428571
 40
-0.157142857142857
 40
-0.142857142857143
 40
-0.128571428571429
 40
-0.114285714285714
 40
-0.1
 40
-0.0857142857142857
 40
-0.0714285714285714
 40
-0.0571428571428571
 40
-0.0428571428571429
 40
-0.0285714285714286
 40
-0.0142857142857143
 40
0.0
 40
0.0
 40
0.0
 40
0.0
 40
0.0
 40
0.0
 10
-12.5523422090954
 20
8.212107224443871
 30
0.0
 41
1.0
 10
-12.5487400724098
 20
8.20124680113947
 30
0.0
 41
1.0
 10
-12.5415063350458
 20
8.17954865992764
 30
0.0
 41
1.0
 10
-12.5305673370314
 20
8.14706956431126
 30
0.0
 41
1.0
 10
-12.5158051635872
 20
8.10390038106245
 30
0.0
 41
1.0
 10
-12.4970573731102
 20
8.0501664479144
 30
0.0
 41
1.0
 10
-12.4780140890685
 20
7.99666085517392
 30
0.0
 41
1.0
 10
-12.4586749175638
 20
7.94338485385564
 30
0.0
 41
1.0
 10
-12.4390395931333
 20
7.8903402175729
 30
0.0
 41
1.0
 10
-12.4191081064946
 20
7.83752933810823
 30
0.0
 41
1.0
 10
-12.3988806530687
 20
7.78495509125036
 30
0.0
 41
1.0
 10
-12.3783575484401
 20
7.73262065994699
 30
0.0
 41
1.0
 10
-12.3575391552429
 20
7.68052936430467
 30
0.0
 41
1.0
 10
-12.3364258126739
 20
7.628684502425831
 30
0.0
 41
1.0
 10
-12.3150177540584
 20
7.57708914634338
 30
0.0
 41
1.0
 10
-12.2933151009064
 20
7.52574615959565
 30
0.0
 41
1.0
 10
-12.2713178936696
 20
7.47465831555794
 30
0.0
 41
1.0
 10
-12.2490261134392
 20
7.42382838592319
 30
0.0
 41
1.0
 10
-12.2264397078765
 20
7.37325923066952
 30
0.0
 41
1.0
 10
-12.2035586214633
 20
7.322953907837491
 30
0.0
 41
1.0
 10
-12.1803828088455
 20
7.272915679026191
 30
0.0
 41
1.0
 10
-12.1569122329103
 20
7.223147930816159
 30
0.0
 41
1.0
 10
-12.1331468707407
 20
7.173654114537
 30
0.0
 41
1.0
 10
-12.1090867153024
 20
7.124437686049929
 30
0.0
 41
1.0
 10
-12.0847317889763
 20
7.07550202058821
 30
0.0
 41
1.0
 10
-12.0600821253078
 20
7.02685042160274
 30
0.0
 41
1.0
 10
-12.0351377153957
 20
6.97848624103415
 30
0.0
 41
1.0
 10
-12.0098984617753
 20
6.93041297540754
 30
0.0
 41
1.0
 10
-11.9843641387901
 20
6.88263435593635
 30
0.0
 41
1.0
 10
-11.9585343342089
 20
6.83515447277646
 30
0.0
 41
1.0
 10
-11.9324084630764
 20
6.787977767121609
 30
0.0
 41
1.0
 10
-11.9059858920862
 20
6.741108817026841
 30
0.0
 41
1.0
 10
-11.8792660485724
 20
6.694552155751199
 30
0.0
 41
1.0
 10
-11.8522485196733
 20
6.648312104337689
 30
0.0
 41
1.0
 10
-11.8249332017154
 20
6.60239252480328
 30
0.0
 41
1.0
 10
-11.797320285119
 20
6.55679684056788
 30
0.0
 41
1.0
 10
-11.7694099280404
 20
6.51152856327198
 30
0.0
 41
1.0
 10
-11.7412019800437
 20
6.466591738722911
 30
0.0
 41
1.0
 10
-11.7126957280027
 20
6.421991358721849
 30
0.0
 41
1.0
 10
-11.6838895375895
 20
6.37773394054891
 30
0.0
 41
1.0
 10
-11.6547808580357
 20
6.33382752582843
 30
0.0
 41
1.0
 10
-11.6253669578475
 20
6.29028050965063
 30
0.0
 41
1.0
 10
-11.5956455564131
 20
6.247100637603531
 30
0.0
 41
1.0
 10
-11.5656153992868
 20
6.20429409266043
 30
0.0
 41
1.0
 10
-11.5352771010352
 20
6.16186415696855
 30
0.0
 41
1.0
 10
-11.5046330803693
 20
6.11981131961913
 30
0.0
 41
1.0
 10
-11.4736857741001
 20
6.07813612604166
 30
0.0
 41
1.0
 10
-11.4424361020195
 20
6.03684162820408
 30
0.0
 41
1.0
 10
-11.4108820887862
 20
5.995935586046841
 30
0.0
 41
1.0
 10
-11.3790168017526
 20
5.9554337573779
 30
0.0
 41
1.0
 10
-11.3468286939518
 20
5.91535936318435
 30
0.0
 41
1.0
 10
-11.314305721962
 20
5.87573655037839
 30
0.0
 41
1.0
 10
-11.2814389116444
 20
5.83658473244309
 30
0.0
 41
1.0
 10
-11.248225469568
 20
5.79791365500088
 30
0.0
 41
1.0
 10
-11.2146737485115
 20
5.7597155088052
 30
0.0
 41
1.0
 10
-11.1808013708233
 20
5.72196794044476
 30
0.0
 41
1.0
 10
-11.1466253731495
 20
5.684649771916571
 30
0.0
 41
1.0
 10
-11.1121535988883
 20
5.64775473141721
 30
0.0
 41
1.0
 10
-11.0773772952336
 20
5.61130327111269
 30
0.0
 41
1.0
 10
-11.0422589575442
 20
5.57536194255487
 30
0.0
 41
1.0
 10
-11.0067396569367
 20
5.5400317948147
 30
0.0
 41
1.0
 10
-10.9707614848896
 20
5.50541276072843
 30
0.0
 41
1.0
 10
-10.9342874964844
 20
5.47157197860163
 30
0.0
 41
1.0
 10
-10.8973187264718
 20
5.43851686456757
 30
0.0
 41
1.0
 10
-10.8599225079797
 20
5.40614997692118
 30
0.0
 41
1.0
 10
-10.82220409985
 20
5.374315125872629
 30
0.0
 41
1.0
 10
-10.7842522662083
 20
5.34288535640585
 30
0.0
 41
1.0
 10
-10.7460906215719
 20
5.31184174812738
 30
0.0
 41
1.0
 10
-10.7076320341059
 20
5.28134708492838
 30
0.0
 41
1.0
 10
-10.6686171795286
 20
5.25184557637045
 30
0.0
 41
1.0
 10
-10.6286827141523
 20
5.22394989840357
 30
0.0
 41
1.0
 10
-10.5957018378125
 20
5.20341691012864
 30
0.0
 41
1.0
 10
-10.5702522503933
 20
5.189242108871119
 30
0.0
 41
1.0
 10
-10.5529515376423
 20
5.18036502425663
 30
0.0
 41
1.0
 10
-10.5442175994434
 20
5.176069680197259
 30
0.0
 41
1.0
  0
LINE
  5
100001E5
102
{ACAD_XDICTIONARY
360
100001E6
102
}
330
1F
100
AcDbEntity
  8
VISIBLE
100
AcDbLine
 10
-10.5442175994434
 20
5.17606968019724
 30
0.0
 11
-8.896140809438961
 21
4.36554678798849
 31
0.0
  0
ARC
  5
100001E9
102
{ACAD_XDICTIONARY
360
100001EA
102
}
330
1F
100
AcDbEntity
  8
VISIBLE
100
AcDbCircle
 10
-9.10444230513395
 20
3.941996924464461
 30
0.0
 40
0.472
100
AcDbArc
 50
336.5885892682924
 51
63.8120762105365
  0
ENDSEC
  0
SECTION
  2
OBJECTS
  0
DICTIONARY
  5
C
330
0
100
AcDbDictionary
  3
ACAD_GROUP
350
D
  3
ACAD_LAYOUT
350
1A
  3
ACAD_MATERIAL
350
43
  3
ACAD_MLEADERSTYLE
350
5B
  3
ACAD_MLINESTYLE
350
17
  3
ACAD_PLOTSETTINGS
350
19
  3
ACAD_SCALELIST
350
47
  3
ACAD_VISUALSTYLE
350
2A
  3
ACDBHEADERROUNDTRIPXREC
350
100001F1
  3
ACDBVARIABLEDICTIONARY
350
10000212
  3
DWGPROPS
350
1000021D
  3
ONSHAPE_DATA
350
10000001
  0
DICTIONARY
  5
1000021E
330
8
100
AcDbDictionary
280
     1
  3
ACAD_XREC_ROUNDTRIP
360
1000021F
  0
DICTIONARY
  5
100001EF
330
1F
100
AcDbDictionary
280
     1
  3
ACAD_SORTENTS
360
100001F0
  0
DICTIONARY
  5
1000005A
330
10000059
100
AcDbDictionary
280
     1
  3
BTARCONSURFACERADIUS
360
1000005D
  3
BTDETID
360
1000005B
  3
BTOWNERFACEID_
360
1000005C
  3
BTPARTID
360
1000005E
  0
DICTIONARY
  5
10000060
330
1000005F
100
AcDbDictionary
280
     1
  3
BTARCONSURFACERADIUS
360
10000063
  3
BTDETID
360
10000061
  3
BTOWNERFACEID_
360
10000062
  3
BTPARTID
360
10000064
  0
DICTIONARY
  5
10000066
330
10000065
100
AcDbDictionary
280
     1
  3
BTARCONSURFACERADIUS
360
10000069
  3
BTDETID
360
10000067
  3
BTOWNERFACEID_
360
10000068
  3
BTPARTID
360
1000006A
  0
DICTIONARY
  5
1000006C
330
1000006B
100
AcDbDictionary
280
     1
  3
BTDETID
360
1000006D
  3
BTPARTID
360
1000006E
  0
DICTIONARY
  5
10000070
330
1000006F
100
AcDbDictionary
280
     1
  3
BTDETID
360
10000071
  3
BTPARTID
360
10000072
  0
DICTIONARY
  5
10000074
330
10000073
100
AcDbDictionary
280
     1
  3
BTARCONSURFACERADIUS
360
10000077
  3
BTDETID
360
10000075
  3
BTOWNERFACEID_
360
10000076
  3
BTPARTID
360
10000078
  0
DICTIONARY
  5
1000007A
330
10000079
100
AcDbDictionary
280
     1
  3
BTDETID
360
1000007B
  3
BTPARTID
360
1000007C
  0
DICTIONARY
  5
1000007E
330
1000007D
100
AcDbDictionary
280
     1
  3
BTDETID
360
1000007F
  3
BTPARTID
360
10000080
  0
DICTIONARY
  5
10000082
330
10000081
100
AcDbDictionary
280
     1
  3
BTARCONSURFACERADIUS
360
10000085
  3
BTDETID
360
10000083
  3
BTOWNERFACEID_
360
10000084
  3
BTPARTID
360
10000086
  0
DICTIONARY
  5
10000088
330
10000087
100
AcDbDictionary
280
     1
  3
BTARCONSURFACERADIUS
360
1000008B
  3
BTDETID
360
10000089
  3
BTOWNERFACEID_
360
1000008A
  3
BTPARTID
360
1000008C
  0
DICTIONARY
  5
1000008E
330
1000008D
100
AcDbDictionary
280
     1
  3
BTARCONSURFACERADIUS
360
10000091
  3
BTDETID
360
1000008F
  3
BTOWNERFACEID_
360
10000090
  3
BTPARTID
360
10000092
  0
DICTIONARY
  5
10000094
330
10000093
100
AcDbDictionary
280
     1
  3
BTDETID
360
10000095
  3
BTPARTID
360
10000096
  0
DICTIONARY
  5
10000098
330
10000097
100
AcDbDictionary
280
     1
  3
BTDETID
360
10000099
  3
BTPARTID
360
1000009A
  0
DICTIONARY
  5
1000009C
330
1000009B
100
AcDbDictionary
280
     1
  3
BTARCONSURFACERADIUS
360
1000009F
  3
BTDETID
360
1000009D
  3
BTOWNERFACEID_
360
1000009E
  3
BTPARTID
360
100000A0
  0
DICTIONARY
  5
100000A2
330
100000A1
100
AcDbDictionary
280
     1
  3
BTDETID
360
100000A3
  3
BTPARTID
360
100000A4
  0
DICTIONARY
  5
100000A6
330
100000A5
100
AcDbDictionary
280
     1
  3
BTDETID
360
100000A7
  3
BTPARTID
360
100000A8
  0
DICTIONARY
  5
100000AA
330
100000A9
100
AcDbDictionary
280
     1
  3
BTARCONSURFACERADIUS
360
100000AD
  3
BTDETID
360
100000AB
  3
BTOWNERFACEID_
360
100000AC
  3
BTPARTID
360
100000AE
  0
DICTIONARY
  5
100000B0
330
100000AF
100
AcDbDictionary
280
     1
  3
BTARCONSURFACERADIUS
360
100000B3
  3
BTDETID
360
100000B1
  3
BTOWNERFACEID_
360
100000B2
  3
BTPARTID
360
100000B4
  0
DICTIONARY
  5
100000B6
330
100000B5
100
AcDbDictionary
280
     1
  3
BTARCONSURFACERADIUS
360
100000B9
  3
BTDETID
360
100000B7
  3
BTOWNERFACEID_
360
100000B8
  3
BTPARTID
360
100000BA
  0
DICTIONARY
  5
100000BC
330
100000BB
100
AcDbDictionary
280
     1
  3
BTDETID
360
100000BD
  3
BTPARTID
360
100000BE
  0
DICTIONARY
  5
100000C0
330
100000BF
100
AcDbDictionary
280
     1
  3
BTDETID
360
100000C1
  3
BTPARTID
360
100000C2
  0
DICTIONARY
  5
100000C4
330
100000C3
100
AcDbDictionary
280
     1
  3
BTARCONSURFACERADIUS
360
100000C7
  3
BTDETID
360
100000C5
  3
BTOWNERFACEID_
360
100000C6
  3
BTPARTID
360
100000C8
  0
DICTIONARY
  5
100000CA
330
100000C9
100
AcDbDictionary
280
     1
  3
BTDETID
360
100000CB
  3
BTPARTID
360
100000CC
  0
DICTIONARY
  5
100000CE
330
100000CD
100
AcDbDictionary
280
     1
  3
BTDETID
360
100000CF
  3
BTPARTID
360
100000D0
  0
DICTIONARY
  5
100000D2
330
100000D1
100
AcDbDictionary
280
     1
  3
BTARCONSURFACERADIUS
360
100000D5
  3
BTDETID
360
100000D3
  3
BTOWNERFACEID_
360
100000D4
  3
BTPARTID
360
100000D6
  0
DICTIONARY
  5
100000D8
330
100000D7
100
AcDbDictionary
280
     1
  3
BTARCONSURFACERADIUS
360
100000DB
  3
BTDETID
360
100000D9
  3
BTOWNERFACEID_
360
100000DA
  3
BTPARTID
360
100000DC
  0
DICTIONARY
  5
100000DE
330
100000DD
100
AcDbDictionary
280
     1
  3
BTARCONSURFACERADIUS
360
100000E1
  3
BTDETID
360
100000DF
  3
BTOWNERFACEID_
360
100000E0
  3
BTPARTID
360
100000E2
  0
DICTIONARY
  5
100000E4
330
100000E3
100
AcDbDictionary
280
     1
  3
BTDETID
360
100000E5
  3
BTPARTID
360
100000E6
  0
DICTIONARY
  5
100000E8
330
100000E7
100
AcDbDictionary
280
     1
  3
BTDETID
360
100000E9
  3
BTPARTID
360
100000EA
  0
DICTIONARY
  5
100000EC
330
100000EB
100
AcDbDictionary
280
     1
  3
BTARCONSURFACERADIUS
360
100000EF
  3
BTDETID
360
100000ED
  3
BTOWNERFACEID_
360
100000EE
  3
BTPARTID
360
100000F0
  0
DICTIONARY
  5
100000F2
330
100000F1
100
AcDbDictionary
280
     1
  3
BTDETID
360
100000F3
  3
BTPARTID
360
100000F4
  0
DICTIONARY
  5
100000F6
330
100000F5
100
AcDbDictionary
280
     1
  3
BTDETID
360
100000F7
  3
BTPARTID
360
100000F8
  0
DICTIONARY
  5
100000FA
330
100000F9
100
AcDbDictionary
280
     1
  3
BTARCONSURFACERADIUS
360
100000FD
  3
BTDETID
360
100000FB
  3
BTOWNERFACEID_
360
100000FC
  3
BTPARTID
360
100000FE
  0
DICTIONARY
  5
10000100
330
100000FF
100
AcDbDictionary
280
     1
  3
BTARCONSURFACERADIUS
360
10000103
  3
BTDETID
360
10000101
  3
BTOWNERFACEID_
360
10000102
  3
BTPARTID
360
10000104
  0
DICTIONARY
  5
10000106
330
10000105
100
AcDbDictionary
280
     1
  3
BTARCONSURFACERADIUS
360
10000109
  3
BTDETID
360
10000107
  3
BTOWNERFACEID_
360
10000108
  3
BTPARTID
360
1000010A
  0
DICTIONARY
  5
1000010C
330
1000010B
100
AcDbDictionary
280
     1
  3
BTDETID
360
1000010D
  3
BTPARTID
360
1000010E
  0
DICTIONARY
  5
10000110
330
1000010F
100
AcDbDictionary
280
     1
  3
BTDETID
360
10000111
  3
BTPARTID
360
10000112
  0
DICTIONARY
  5
10000114
330
10000113
100
AcDbDictionary
280
     1
  3
BTARCONSURFACERADIUS
360
10000117
  3
BTDETID
360
10000115
  3
BTOWNERFACEID_
360
10000116
  3
BTPARTID
360
10000118
  0
DICTIONARY
  5
1000011A
330
10000119
100
AcDbDictionary
280
     1
  3
BTDETID
360
1000011B
  3
BTPARTID
360
1000011C
  0
DICTIONARY
  5
1000011E
330
1000011D
100
AcDbDictionary
280
     1
  3
BTDETID
360
1000011F
  3
BTPARTID
360
10000120
  0
DICTIONARY
  5
10000122
330
10000121
100
AcDbDictionary
280
     1
  3
BTARCONSURFACERADIUS
360
10000125
  3
BTDETID
360
10000123
  3
BTOWNERFACEID_
360
10000124
  3
BTPARTID
360
10000126
  0
DICTIONARY
  5
10000128
330
10000127
100
AcDbDictionary
280
     1
  3
BTARCONSURFACERADIUS
360
1000012B
  3
BTDETID
360
10000129
  3
BTOWNERFACEID_
360
1000012A
  3
BTPARTID
360
1000012C
  0
DICTIONARY
  5
1000012E
330
1000012D
100
AcDbDictionary
280
     1
  3
BTARCONSURFACERADIUS
360
10000131
  3
BTDETID
360
1000012F
  3
BTOWNERFACEID_
360
10000130
  3
BTPARTID
360
10000132
  0
DICTIONARY
  5
10000134
330
10000133
100
AcDbDictionary
280
     1
  3
BTDETID
360
10000135
  3
BTPARTID
360
10000136
  0
DICTIONARY
  5
10000138
330
10000137
100
AcDbDictionary
280
     1
  3
BTDETID
360
10000139
  3
BTPARTID
360
1000013A
  0
DICTIONARY
  5
1000013C
330
1000013B
100
AcDbDictionary
280
     1
  3
BTARCONSURFACERADIUS
360
1000013F
  3
BTDETID
360
1000013D
  3
BTOWNERFACEID_
360
1000013E
  3
BTPARTID
360
10000140
  0
DICTIONARY
  5
10000142
330
10000141
100
AcDbDictionary
280
     1
  3
BTDETID
360
10000143
  3
BTPARTID
360
10000144
  0
DICTIONARY
  5
10000146
330
10000145
100
AcDbDictionary
280
     1
  3
BTDETID
360
10000147
  3
BTPARTID
360
10000148
  0
DICTIONARY
  5
1000014A
330
10000149
100
AcDbDictionary
280
     1
  3
BTARCONSURFACERADIUS
360
1000014D
  3
BTDETID
360
1000014B
  3
BTOWNERFACEID_
360
1000014C
  3
BTPARTID
360
1000014E
  0
DICTIONARY
  5
10000150
330
1000014F
100
AcDbDictionary
280
     1
  3
BTARCONSURFACERADIUS
360
10000153
  3
BTDETID
360
10000151
  3
BTOWNERFACEID_
360
10000152
  3
BTPARTID
360
10000154
  0
DICTIONARY
  5
10000156
330
10000155
100
AcDbDictionary
280
     1
  3
BTARCONSURFACERADIUS
360
10000159
  3
BTDETID
360
10000157
  3
BTOWNERFACEID_
360
10000158
  3
BTPARTID
360
1000015A
  0
DICTIONARY
  5
1000015C
330
1000015B
100
AcDbDictionary
280
     1
  3
BTDETID
360
1000015D
  3
BTPARTID
360
1000015E
  0
DICTIONARY
  5
10000160
330
1000015F
100
AcDbDictionary
280
     1
  3
BTDETID
360
10000161
  3
BTPARTID
360
10000162
  0
DICTIONARY
  5
10000164
330
10000163
100
AcDbDictionary
280
     1
  3
BTARCONSURFACERADIUS
360
10000167
  3
BTDETID
360
10000165
  3
BTOWNERFACEID_
360
10000166
  3
BTPARTID
360
10000168
  0
DICTIONARY
  5
1000016A
330
10000169
100
AcDbDictionary
280
     1
  3
BTDETID
360
1000016B
  3
BTPARTID
360
1000016C
  0
DICTIONARY
  5
1000016E
330
1000016D
100
AcDbDictionary
280
     1
  3
BTDETID
360
1000016F
  3
BTPARTID
360
10000170
  0
DICTIONARY
  5
10000172
330
10000171
100
AcDbDictionary
280
     1
  3
BTARCONSURFACERADIUS
360
10000175
  3
BTDETID
360
10000173
  3
BTOWNERFACEID_
360
10000174
  3
BTPARTID
360
10000176
  0
DICTIONARY
  5
10000178
330
10000177
100
AcDbDictionary
280
     1
  3
BTARCONSURFACERADIUS
360
1000017B
  3
BTDETID
360
10000179
  3
BTOWNERFACEID_
360
1000017A
  3
BTPARTID
360
1000017C
  0
DICTIONARY
  5
1000017E
330
1000017D
100
AcDbDictionary
280
     1
  3
BTARCONSURFACERADIUS
360
10000181
  3
BTDETID
360
1000017F
  3
BTOWNERFACEID_
360
10000180
  3
BTPARTID
360
10000182
  0
DICTIONARY
  5
10000184
330
10000183
100
AcDbDictionary
280
     1
  3
BTDETID
360
10000185
  3
BTPARTID
360
10000186
  0
DICTIONARY
  5
10000188
330
10000187
100
AcDbDictionary
280
     1
  3
BTDETID
360
10000189
  3
BTPARTID
360
1000018A
  0
DICTIONARY
  5
1000018C
330
1000018B
100
AcDbDictionary
280
     1
  3
BTARCONSURFACERADIUS
360
1000018F
  3
BTDETID
360
1000018D
  3
BTOWNERFACEID_
360
1000018E
  3
BTPARTID
360
10000190
  0
DICTIONARY
  5
10000192
330
10000191
100
AcDbDictionary
280
     1
  3
BTDETID
360
10000193
  3
BTPARTID
360
10000194
  0
DICTIONARY
  5
10000196
330
10000195
100
AcDbDictionary
280
     1
  3
BTDETID
360
10000197
  3
BTPARTID
360
10000198
  0
DICTIONARY
  5
1000019A
330
10000199
100
AcDbDictionary
280
     1
  3
BTARCONSURFACERADIUS
360
1000019D
  3
BTDETID
360
1000019B
  3
BTOWNERFACEID_
360
1000019C
  3
BTPARTID
360
1000019E
  0
DICTIONARY
  5
100001A0
330
1000019F
100
AcDbDictionary
280
     1
  3
BTARCONSURFACERADIUS
360
100001A3
  3
BTDETID
360
100001A1
  3
BTOWNERFACEID_
360
100001A2
  3
BTPARTID
360
100001A4
  0
DICTIONARY
  5
100001A6
330
100001A5
100
AcDbDictionary
280
     1
  3
BTARCONSURFACERADIUS
360
100001A9
  3
BTDETID
360
100001A7
  3
BTOWNERFACEID_
360
100001A8
  3
BTPARTID
360
100001AA
  0
DICTIONARY
  5
100001AC
330
100001AB
100
AcDbDictionary
280
     1
  3
BTDETID
360
100001AD
  3
BTPARTID
360
100001AE
  0
DICTIONARY
  5
100001B0
330
100001AF
100
AcDbDictionary
280
     1
  3
BTDETID
360
100001B1
  3
BTPARTID
360
100001B2
  0
DICTIONARY
  5
100001B4
330
100001B3
100
AcDbDictionary
280
     1
  3
BTARCONSURFACERADIUS
360
100001B7
  3
BTDETID
360
100001B5
  3
BTOWNERFACEID_
360
100001B6
  3
BTPARTID
360
100001B8
  0
DICTIONARY
  5
100001BA
330
100001B9
100
AcDbDictionary
280
     1
  3
BTDETID
360
100001BB
  3
BTPARTID
360
100001BC
  0
DICTIONARY
  5
100001BE
330
100001BD
100
AcDbDictionary
280
     1
  3
BTDETID
360
100001BF
  3
BTPARTID
360
100001C0
  0
DICTIONARY
  5
100001C2
330
100001C1
100
AcDbDictionary
280
     1
  3
BTARCONSURFACERADIUS
360
100001C5
  3
BTDETID
360
100001C3
  3
BTOWNERFACEID_
360
100001C4
  3
BTPARTID
360
100001C6
  0
DICTIONARY
  5
100001C8
330
100001C7
100
AcDbDictionary
280
     1
  3
BTARCONSURFACERADIUS
360
100001CB
  3
BTDETID
360
100001C9
  3
BTOWNERFACEID_
360
100001CA
  3
BTPARTID
360
100001CC
  0
DICTIONARY
  5
100001CE
330
100001CD
100
AcDbDictionary
280
     1
  3
BTARCONSURFACERADIUS
360
100001D1
  3
BTDETID
360
100001CF
  3
BTOWNERFACEID_
360
100001D0
  3
BTPARTID
360
100001D2
  0
DICTIONARY
  5
100001D4
330
100001D3
100
AcDbDictionary
280
     1
  3
BTDETID
360
100001D5
  3
BTPARTID
360
100001D6
  0
DICTIONARY
  5
100001D8
330
100001D7
100
AcDbDictionary
280
     1
  3
BTDETID
360
100001D9
  3
BTPARTID
360
100001DA
  0
DICTIONARY
  5
100001DC
330
100001DB
100
AcDbDictionary
280
     1
  3
BTARCONSURFACERADIUS
360
100001DF
  3
BTDETID
360
100001DD
  3
BTOWNERFACEID_
360
100001DE
  3
BTPARTID
360
100001E0
  0
DICTIONARY
  5
100001E2
330
100001E1
100
AcDbDictionary
280
     1
  3
BTDETID
360
100001E3
  3
BTPARTID
360
100001E4
  0
DICTIONARY
  5
100001E6
330
100001E5
100
AcDbDictionary
280
     1
  3
BTDETID
360
100001E7
  3
BTPARTID
360
100001E8
  0
DICTIONARY
  5
100001EA
330
100001E9
100
AcDbDictionary
280
     1
  3
BTARCONSURFACERADIUS
360
100001ED
  3
BTDETID
360
100001EB
  3
BTOWNERFACEID_
360
100001EC
  3
BTPARTID
360
100001EE
  0
DICTIONARY
  5
D
102
{ACAD_REACTORS
330
C
102
}
330
C
100
AcDbDictionary
  0
DICTIONARY
  5
1A
102
{ACAD_REACTORS
330
C
102
}
330
C
100
AcDbDictionary
  0
DICTIONARY
  5
43
102
{ACAD_REACTORS
330
C
102
}
330
C
100
AcDbDictionary
  3
BYBLOCK
350
45
  3
BYLAYER
350
44
  3
GLOBAL
350
46
  0
DICTIONARY
  5
5B
102
{ACAD_REACTORS
330
C
102
}
330
C
100
AcDbDictionary
  3
STANDARD
350
5C
  0
DICTIONARY
  5
17
102
{ACAD_REACTORS
330
C
102
}
330
C
100
AcDbDictionary
  3
STANDARD
350
18
  0
DICTIONARY
  5
19
102
{ACAD_REACTORS
330
C
102
}
330
C
100
AcDbDictionary
  0
DICTIONARY
  5
47
102
{ACAD_REACTORS
330
C
102
}
330
C
100
AcDbDictionary
  3
SCALE100_1
350
10000023
  3
SCALE10_1
350
1000001D
  3
SCALE12_1
350
1000001E
  3
SCALE16_1
350
1000001F
  3
SCALE1_1
350
10000006
  3
SCALE1_10
350
1000000D
  3
SCALE1_100
350
10000016
  3
SCALE1_12
350
1000000E
  3
SCALE1_16
350
1000000F
  3
SCALE1_2
350
10000007
  3
SCALE1_20
350
10000010
  3
SCALE1_25
350
10000011
  3
SCALE1_3
350
10000008
  3
SCALE1_32
350
10000012
  3
SCALE1_4
350
10000009
  3
SCALE1_40
350
10000013
  3
SCALE1_5
350
1000000A
  3
SCALE1_50
350
10000014
  3
SCALE1_6
350
1000000B
  3
SCALE1_8
350
1000000C
  3
SCALE1_80
350
10000015
  3
SCALE20_1
350
10000020
  3
SCALE2_1
350
10000017
  3
SCALE32_1
350
10000021
  3
SCALE3_1
350
10000018
  3
SCALE4_1
350
10000019
  3
SCALE50_1
350
10000022
  3
SCALE5_1
350
1000001A
  3
SCALE6_1
350
1000001B
  3
SCALE8_1
350
1000001C
  0
DICTIONARY
  5
2A
102
{ACAD_REACTORS
330
C
102
}
330
C
100
AcDbDictionary
  3
2DWIREFRAME
350
2F
  3
BASIC
350
32
  3
BRIGHTEN
350
36
  3
COLORCHANGE
350
3A
  3
CONCEPTUAL
350
34
  3
DIM
350
35
  3
EDGECOLOROFF
350
3D
  3
FACEPATTERN
350
39
  3
FLAT
350
2B
  3
FLATWITHEDGES
350
2C
  3
GOURAUD
350
2D
  3
GOURAUDWITHEDGES
350
2E
  3
HIDDEN
350
31
  3
JITTEROFF
350
3B
  3
LINEPATTERN
350
38
  3
OVERHANGOFF
350
3C
  3
REALISTIC
350
33
  3
SHADED
350
42
  3
SHADED_WITH_EDGES
350
41
  3
SHADES_OF_GRAY
350
3E
  3
SKETCHY
350
3F
  3
THICKEN
350
37
  3
WIREFRAME
350
30
  3
X-RAY
350
40
  0
DICTIONARY
  5
100001F1
102
{ACAD_REACTORS
330
C
102
}
330
C
100
AcDbDictionary
  3
CEPSNID
350
100001FB
  3
CEPSNTYPE
350
100001FA
  3
DIMSTYLEDATA
350
10000211
  3
FINGERPRINTGUID
350
100001FC
  3
HYPERLINKBASE
350
100001F4
  3
INSUNITS
350
100001F9
  3
LAYOUTDICT
350
100001F6
  3
LWETCUNION
350
100001F8
  3
PLOTSETDICT
350
100001F7
  3
PSVPSCALE
350
100001FE
  3
PUCSBASE
350
10000201
  3
PUCSORGBACK
350
10000207
  3
PUCSORGBOTTOM
350
10000203
  3
PUCSORGFRONT
350
10000206
  3
PUCSORGLEFT
350
10000204
  3
PUCSORGRIGHT
350
10000205
  3
PUCSORGTOP
350
10000202
  3
PUCSORTHOREF
350
100001FF
  3
PUCSORTHOVIEW
350
10000200
  3
STYLESHEET
350
100001F5
  3
TSTACKALIGN
350
100001F2
  3
TSTACKSIZE
350
100001F3
  3
UCSBASE
350
1000020A
  3
UCSORGBACK
350
10000210
  3
UCSORGBOTTOM
350
1000020C
  3
UCSORGFRONT
350
1000020F
  3
UCSORGLEFT
350
1000020D
  3
UCSORGRIGHT
350
1000020E
  3
UCSORGTOP
350
1000020B
  3
UCSORTHOREF
350
10000208
  3
UCSORTHOVIEW
350
10000209
  3
VERSIONGUID
350
100001FD
  0
DICTIONARY
  5
10000212
102
{ACAD_REACTORS
330
C
102
}
330
C
100
AcDbDictionary
  3
CANNOSCALE
350
10000220
  3
CENTEREXE
350
10000219
  3
CENTERLTYPEFILE
350
1000021A
  3
CMLEADERSTYLE
350
10000214
  3
CTABLESTYLE
350
10000213
  3
DIMASSOC
350
1000021B
  3
HIDETEXT
350
1000021C
  3
MSLTSCALE
350
10000221
  3
PSOLHEIGHT
350
10000216
  3
PSOLWIDTH
350
10000215
  0
XRECORD
  5
1000021D
102
{ACAD_REACTORS
330
C
102
}
330
C
100
AcDbXrecord
  1
DWGPROPS COOKIE
  2

  3

  4

  6
File was created by BTDwgCreate
  7

  8
onshape
  9

300
=
301
=
302
=
303
=
304
=
305
=
306
=
307
=
308
=
309
=
 40
0.0
 41
2461032.05639684
 42
2461032.056396887
  1

 90
        0
  0
DICTIONARY
  5
10000001
102
{ACAD_REACTORS
330
C
102
}
330
C
100
AcDbDictionary
280
     1
  3
DIM_UNITS
360
10000003
  3
DWGGEN_VERSION
360
10000002
  3
FIRST_ANGLE
360
10000005
  0
XRECORD
  5
1000021F
102
{ACAD_REACTORS
330
1000021E
102
}
330
1000021E
100
AcDbXrecord
102
VTR_0.000_0.000_1.000_1.000_VISUALSTYLE
340
2F
102
VTR_0.000_0.000_1.000_1.000_GRIDDISPLAY
 70
     3
102
VTR_0.000_0.000_1.000_1.000_GRIDMAJOR
 70
     5
102
VTR_0.000_0.000_1.000_1.000_DEFAULTLIGHTING
280
     1
102
VTR_0.000_0.000_1.000_1.000_DEFAULTLIGHTINGTYPE
 70
     1
102
VTR_0.000_0.000_1.000_1.000_BRIGHTNESS
141
0.0
102
VTR_0.000_0.000_1.000_1.000_CONTRAST
142
0.0
  0
SORTENTSTABLE
  5
100001F0
102
{ACAD_REACTORS
330
100001EF
102
}
330
100001EF
100
AcDbSortentsTable
330
1F
  0
XRECORD
  5
1000005D
102
{ACAD_REACTORS
330
1000005A
102
}
330
1000005A
100
AcDbXrecord
 40
2.5
  0
XRECORD
  5
1000005B
102
{ACAD_REACTORS
330
1000005A
102
}
330
1000005A
100
AcDbXrecord
1000
LFBkE
  0
XRECORD
  5
1000005C
102
{ACAD_REACTORS
330
1000005A
102
}
330
1000005A
100
AcDbXrecord
1000
LFqnB
  0
XRECORD
  5
1000005E
102
{ACAD_REACTORS
330
1000005A
102
}
330
1000005A
100
AcDbXrecord
1000
KFbB
  0
XRECORD
  5
10000063
102
{ACAD_REACTORS
330
10000060
102
}
330
10000060
100
AcDbXrecord
 40
9.4492
  0
XRECORD
  5
10000061
102
{ACAD_REACTORS
330
10000060
102
}
330
10000060
100
AcDbXrecord
1000
LF9jE
  0
XRECORD
  5
10000062
102
{ACAD_REACTORS
330
10000060
102
}
330
10000060
100
AcDbXrecord
1000
LFqnB
  0
XRECORD
  5
10000064
102
{ACAD_REACTORS
330
10000060
102
}
330
10000060
100
AcDbXrecord
1000
KFbB
  0
XRECORD
  5
10000069
102
{ACAD_REACTORS
330
10000066
102
}
330
10000066
100
AcDbXrecord
 40
0.472
  0
XRECORD
  5
10000067
102
{ACAD_REACTORS
330
10000066
102
}
330
10000066
100
AcDbXrecord
1000
LFZjE
  0
XRECORD
  5
10000068
102
{ACAD_REACTORS
330
10000066
102
}
330
10000066
100
AcDbXrecord
1000
LFqnB
  0
XRECORD
  5
1000006A
102
{ACAD_REACTORS
330
10000066
102
}
330
10000066
100
AcDbXrecord
1000
KFbB
  0
XRECORD
  5
1000006D
102
{ACAD_REACTORS
330
1000006C
102
}
330
1000006C
100
AcDbXrecord
1000
LFljE
  0
XRECORD
  5
1000006E
102
{ACAD_REACTORS
330
1000006C
102
}
330
1000006C
100
AcDbXrecord
1000
KFbB
  0
XRECORD
  5
10000071
102
{ACAD_REACTORS
330
10000070
102
}
330
10000070
100
AcDbXrecord
1000
LF5jE
  0
XRECORD
  5
10000072
102
{ACAD_REACTORS
330
10000070
102
}
330
10000070
100
AcDbXrecord
1000
KFbB
  0
XRECORD
  5
10000077
102
{ACAD_REACTORS
330
10000074
102
}
330
10000074
100
AcDbXrecord
 40
15.0
  0
XRECORD
  5
10000075
102
{ACAD_REACTORS
330
10000074
102
}
330
10000074
100
AcDbXrecord
1000
LFxjE
  0
XRECORD
  5
10000076
102
{ACAD_REACTORS
330
10000074
102
}
330
10000074
100
AcDbXrecord
1000
LFqnB
  0
XRECORD
  5
10000078
102
{ACAD_REACTORS
330
10000074
102
}
330
10000074
100
AcDbXrecord
1000
KFbB
  0
XRECORD
  5
1000007B
102
{ACAD_REACTORS
330
1000007A
102
}
330
1000007A
100
AcDbXrecord
1000
LFpjE
  0
XRECORD
  5
1000007C
102
{ACAD_REACTORS
330
1000007A
102
}
330
1000007A
100
AcDbXrecord
1000
KFbB
  0
XRECORD
  5
1000007F
102
{ACAD_REACTORS
330
1000007E
102
}
330
1000007E
100
AcDbXrecord
1000
LFNjE
  0
XRECORD
  5
10000080
102
{ACAD_REACTORS
330
1000007E
102
}
330
1000007E
100
AcDbXrecord
1000
KFbB
  0
XRECORD
  5
10000085
102
{ACAD_REACTORS
330
10000082
102
}
330
10000082
100
AcDbXrecord
 40
0.472
  0
XRECORD
  5
10000083
102
{ACAD_REACTORS
330
10000082
102
}
330
10000082
100
AcDbXrecord
1000
LFFjE
  0
XRECORD
  5
10000084
102
{ACAD_REACTORS
330
10000082
102
}
330
10000082
100
AcDbXrecord
1000
LFqnB
  0
XRECORD
  5
10000086
102
{ACAD_REACTORS
330
10000082
102
}
330
10000082
100
AcDbXrecord
1000
KFbB
  0
XRECORD
  5
1000008B
102
{ACAD_REACTORS
330
10000088
102
}
330
10000088
100
AcDbXrecord
 40
9.4492
  0
XRECORD
  5
10000089
102
{ACAD_REACTORS
330
10000088
102
}
330
10000088
100
AcDbXrecord
1000
LFdiE
  0
XRECORD
  5
1000008A
102
{ACAD_REACTORS
330
10000088
102
}
330
10000088
100
AcDbXrecord
1000
LFqnB
  0
XRECORD
  5
1000008C
102
{ACAD_REACTORS
330
10000088
102
}
330
10000088
100
AcDbXrecord
1000
KFbB
  0
XRECORD
  5
10000091
102
{ACAD_REACTORS
330
1000008E
102
}
330
1000008E
100
AcDbXrecord
 40
0.472
  0
XRECORD
  5
1000008F
102
{ACAD_REACTORS
330
1000008E
102
}
330
1000008E
100
AcDbXrecord
1000
LFhcE
  0
XRECORD
  5
10000090
102
{ACAD_REACTORS
330
1000008E
102
}
330
1000008E
100
AcDbXrecord
1000
LFqnB
  0
XRECORD
  5
10000092
102
{ACAD_REACTORS
330
1000008E
102
}
330
1000008E
100
AcDbXrecord
1000
KFbB
  0
XRECORD
  5
10000095
102
{ACAD_REACTORS
330
10000094
102
}
330
10000094
100
AcDbXrecord
1000
LFxcE
  0
XRECORD
  5
10000096
102
{ACAD_REACTORS
330
10000094
102
}
330
10000094
100
AcDbXrecord
1000
KFbB
  0
XRECORD
  5
10000099
102
{ACAD_REACTORS
330
10000098
102
}
330
10000098
100
AcDbXrecord
1000
LFRhE
  0
XRECORD
  5
1000009A
102
{ACAD_REACTORS
330
10000098
102
}
330
10000098
100
AcDbXrecord
1000
KFbB
  0
XRECORD
  5
1000009F
102
{ACAD_REACTORS
330
1000009C
102
}
330
1000009C
100
AcDbXrecord
 40
15.0
  0
XRECORD
  5
1000009D
102
{ACAD_REACTORS
330
1000009C
102
}
330
1000009C
100
AcDbXrecord
1000
LFFhE
  0
XRECORD
  5
1000009E
102
{ACAD_REACTORS
330
1000009C
102
}
330
1000009C
100
AcDbXrecord
1000
LFqnB
  0
XRECORD
  5
100000A0
102
{ACAD_REACTORS
330
1000009C
102
}
330
1000009C
100
AcDbXrecord
1000
KFbB
  0
XRECORD
  5
100000A3
102
{ACAD_REACTORS
330
100000A2
102
}
330
100000A2
100
AcDbXrecord
1000
LF5gE
  0
XRECORD
  5
100000A4
102
{ACAD_REACTORS
330
100000A2
102
}
330
100000A2
100
AcDbXrecord
1000
KFbB
  0
XRECORD
  5
100000A7
102
{ACAD_REACTORS
330
100000A6
102
}
330
100000A6
100
AcDbXrecord
1000
LFNcE
  0
XRECORD
  5
100000A8
102
{ACAD_REACTORS
330
100000A6
102
}
330
100000A6
100
AcDbXrecord
1000
KFbB
  0
XRECORD
  5
100000AD
102
{ACAD_REACTORS
330
100000AA
102
}
330
100000AA
100
AcDbXrecord
 40
0.472
  0
XRECORD
  5
100000AB
102
{ACAD_REACTORS
330
100000AA
102
}
330
100000AA
100
AcDbXrecord
1000
LF9bE
  0
XRECORD
  5
100000AC
102
{ACAD_REACTORS
330
100000AA
102
}
330
100000AA
100
AcDbXrecord
1000
LFqnB
  0
XRECORD
  5
100000AE
102
{ACAD_REACTORS
330
100000AA
102
}
330
100000AA
100
AcDbXrecord
1000
KFbB
  0
XRECORD
  5
100000B3
102
{ACAD_REACTORS
330
100000B0
102
}
330
100000B0
100
AcDbXrecord
 40
9.4492
  0
XRECORD
  5
100000B1
102
{ACAD_REACTORS
330
100000B0
102
}
330
100000B0
100
AcDbXrecord
1000
LFliE
  0
XRECORD
  5
100000B2
102
{ACAD_REACTORS
330
100000B0
102
}
330
100000B0
100
AcDbXrecord
1000
LFqnB
  0
XRECORD
  5
100000B4
102
{ACAD_REACTORS
330
100000B0
102
}
330
100000B0
100
AcDbXrecord
1000
KFbB
  0
XRECORD
  5
100000B9
102
{ACAD_REACTORS
330
100000B6
102
}
330
100000B6
100
AcDbXrecord
 40
0.472
  0
XRECORD
  5
100000B7
102
{ACAD_REACTORS
330
100000B6
102
}
330
100000B6
100
AcDbXrecord
1000
LFpbE
  0
XRECORD
  5
100000B8
102
{ACAD_REACTORS
330
100000B6
102
}
330
100000B6
100
AcDbXrecord
1000
LFqnB
  0
XRECORD
  5
100000BA
102
{ACAD_REACTORS
330
100000B6
102
}
330
100000B6
100
AcDbXrecord
1000
KFbB
  0
XRECORD
  5
100000BD
102
{ACAD_REACTORS
330
100000BC
102
}
330
100000BC
100
AcDbXrecord
1000
LF5bE
  0
XRECORD
  5
100000BE
102
{ACAD_REACTORS
330
100000BC
102
}
330
100000BC
100
AcDbXrecord
1000
KFbB
  0
XRECORD
  5
100000C1
102
{ACAD_REACTORS
330
100000C0
102
}
330
100000C0
100
AcDbXrecord
1000
LFxgE
  0
XRECORD
  5
100000C2
102
{ACAD_REACTORS
330
100000C0
102
}
330
100000C0
100
AcDbXrecord
1000
KFbB
  0
XRECORD
  5
100000C7
102
{ACAD_REACTORS
330
100000C4
102
}
330
100000C4
100
AcDbXrecord
 40
15.0
  0
XRECORD
  5
100000C5
102
{ACAD_REACTORS
330
100000C4
102
}
330
100000C4
100
AcDbXrecord
1000
LFlgE
  0
XRECORD
  5
100000C6
102
{ACAD_REACTORS
330
100000C4
102
}
330
100000C4
100
AcDbXrecord
1000
LFqnB
  0
XRECORD
  5
100000C8
102
{ACAD_REACTORS
330
100000C4
102
}
330
100000C4
100
AcDbXrecord
1000
KFbB
  0
XRECORD
  5
100000CB
102
{ACAD_REACTORS
330
100000CA
102
}
330
100000CA
100
AcDbXrecord
1000
LFZgE
  0
XRECORD
  5
100000CC
102
{ACAD_REACTORS
330
100000CA
102
}
330
100000CA
100
AcDbXrecord
1000
KFbB
  0
XRECORD
  5
100000CF
102
{ACAD_REACTORS
330
100000CE
102
}
330
100000CE
100
AcDbXrecord
1000
LFVbE
  0
XRECORD
  5
100000D0
102
{ACAD_REACTORS
330
100000CE
102
}
330
100000CE
100
AcDbXrecord
1000
KFbB
  0
XRECORD
  5
100000D5
102
{ACAD_REACTORS
330
100000D2
102
}
330
100000D2
100
AcDbXrecord
 40
0.472
  0
XRECORD
  5
100000D3
102
{ACAD_REACTORS
330
100000D2
102
}
330
100000D2
100
AcDbXrecord
1000
LFFbE
  0
XRECORD
  5
100000D4
102
{ACAD_REACTORS
330
100000D2
102
}
330
100000D2
100
AcDbXrecord
1000
LFqnB
  0
XRECORD
  5
100000D6
102
{ACAD_REACTORS
330
100000D2
102
}
330
100000D2
100
AcDbXrecord
1000
KFbB
  0
XRECORD
  5
100000DB
102
{ACAD_REACTORS
330
100000D8
102
}
330
100000D8
100
AcDbXrecord
 40
9.4492
  0
XRECORD
  5
100000D9
102
{ACAD_REACTORS
330
100000D8
102
}
330
100000D8
100
AcDbXrecord
1000
LFpiE
  0
XRECORD
  5
100000DA
102
{ACAD_REACTORS
330
100000D8
102
}
330
100000D8
100
AcDbXrecord
1000
LFqnB
  0
XRECORD
  5
100000DC
102
{ACAD_REACTORS
330
100000D8
102
}
330
100000D8
100
AcDbXrecord
1000
KFbB
  0
XRECORD
  5
100000E1
102
{ACAD_REACTORS
330
100000DE
102
}
330
100000DE
100
AcDbXrecord
 40
0.472
  0
XRECORD
  5
100000DF
102
{ACAD_REACTORS
330
100000DE
102
}
330
100000DE
100
AcDbXrecord
1000
LFxaE
  0
XRECORD
  5
100000E0
102
{ACAD_REACTORS
330
100000DE
102
}
330
100000DE
100
AcDbXrecord
1000
LFqnB
  0
XRECORD
  5
100000E2
102
{ACAD_REACTORS
330
100000DE
102
}
330
100000DE
100
AcDbXrecord
1000
KFbB
  0
XRECORD
  5
100000E5
102
{ACAD_REACTORS
330
100000E4
102
}
330
100000E4
100
AcDbXrecord
1000
LFBbE
  0
XRECORD
  5
100000E6
102
{ACAD_REACTORS
330
100000E4
102
}
330
100000E4
100
AcDbXrecord
1000
KFbB
  0
XRECORD
  5
100000E9
102
{ACAD_REACTORS
330
100000E8
102
}
330
100000E8
100
AcDbXrecord
1000
LFRgE
  0
XRECORD
  5
100000EA
102
{ACAD_REACTORS
330
100000E8
102
}
330
100000E8
100
AcDbXrecord
1000
KFbB
  0
XRECORD
  5
100000EF
102
{ACAD_REACTORS
330
100000EC
102
}
330
100000EC
100
AcDbXrecord
 40
15.0
  0
XRECORD
  5
100000ED
102
{ACAD_REACTORS
330
100000EC
102
}
330
100000EC
100
AcDbXrecord
1000
LFFgE
  0
XRECORD
  5
100000EE
102
{ACAD_REACTORS
330
100000EC
102
}
330
100000EC
100
AcDbXrecord
1000
LFqnB
  0
XRECORD
  5
100000F0
102
{ACAD_REACTORS
330
100000EC
102
}
330
100000EC
100
AcDbXrecord
1000
KFbB
  0
XRECORD
  5
100000F3
102
{ACAD_REACTORS
330
100000F2
102
}
330
100000F2
100
AcDbXrecord
1000
LF5fE
  0
XRECORD
  5
100000F4
102
{ACAD_REACTORS
330
100000F2
102
}
330
100000F2
100
AcDbXrecord
1000
KFbB
  0
XRECORD
  5
100000F7
102
{ACAD_REACTORS
330
100000F6
102
}
330
100000F6
100
AcDbXrecord
1000
LFdaE
  0
XRECORD
  5
100000F8
102
{ACAD_REACTORS
330
100000F6
102
}
330
100000F6
100
AcDbXrecord
1000
KFbB
  0
XRECORD
  5
100000FD
102
{ACAD_REACTORS
330
100000FA
102
}
330
100000FA
100
AcDbXrecord
 40
0.472
  0
XRECORD
  5
100000FB
102
{ACAD_REACTORS
330
100000FA
102
}
330
100000FA
100
AcDbXrecord
1000
LFNaE
  0
XRECORD
  5
100000FC
102
{ACAD_REACTORS
330
100000FA
102
}
330
100000FA
100
AcDbXrecord
1000
LFqnB
  0
XRECORD
  5
100000FE
102
{ACAD_REACTORS
330
100000FA
102
}
330
100000FA
100
AcDbXrecord
1000
KFbB
  0
XRECORD
  5
10000103
102
{ACAD_REACTORS
330
10000100
102
}
330
10000100
100
AcDbXrecord
 40
9.4492
  0
XRECORD
  5
10000101
102
{ACAD_REACTORS
330
10000100
102
}
330
10000100
100
AcDbXrecord
1000
LFtiE
  0
XRECORD
  5
10000102
102
{ACAD_REACTORS
330
10000100
102
}
330
10000100
100
AcDbXrecord
1000
LFqnB
  0
XRECORD
  5
10000104
102
{ACAD_REACTORS
330
10000100
102
}
330
10000100
100
AcDbXrecord
1000
KFbB
  0
XRECORD
  5
10000109
102
{ACAD_REACTORS
330
10000106
102
}
330
10000106
100
AcDbXrecord
 40
0.472
  0
XRECORD
  5
10000107
102
{ACAD_REACTORS
330
10000106
102
}
330
10000106
100
AcDbXrecord
1000
LF5ZE
  0
XRECORD
  5
10000108
102
{ACAD_REACTORS
330
10000106
102
}
330
10000106
100
AcDbXrecord
1000
LFqnB
  0
XRECORD
  5
1000010A
102
{ACAD_REACTORS
330
10000106
102
}
330
10000106
100
AcDbXrecord
1000
KFbB
  0
XRECORD
  5
1000010D
102
{ACAD_REACTORS
330
1000010C
102
}
330
1000010C
100
AcDbXrecord
1000
LFJaE
  0
XRECORD
  5
1000010E
102
{ACAD_REACTORS
330
1000010C
102
}
330
1000010C
100
AcDbXrecord
1000
KFbB
  0
XRECORD
  5
10000111
102
{ACAD_REACTORS
330
10000110
102
}
330
10000110
100
AcDbXrecord
1000
LFxfE
  0
XRECORD
  5
10000112
102
{ACAD_REACTORS
330
10000110
102
}
330
10000110
100
AcDbXrecord
1000
KFbB
  0
XRECORD
  5
10000117
102
{ACAD_REACTORS
330
10000114
102
}
330
10000114
100
AcDbXrecord
 40
15.0
  0
XRECORD
  5
10000115
102
{ACAD_REACTORS
330
10000114
102
}
330
10000114
100
AcDbXrecord
1000
LFlfE
  0
XRECORD
  5
10000116
102
{ACAD_REACTORS
330
10000114
102
}
330
10000114
100
AcDbXrecord
1000
LFqnB
  0
XRECORD
  5
10000118
102
{ACAD_REACTORS
330
10000114
102
}
330
10000114
100
AcDbXrecord
1000
KFbB
  0
XRECORD
  5
1000011B
102
{ACAD_REACTORS
330
1000011A
102
}
330
1000011A
100
AcDbXrecord
1000
LFZfE
  0
XRECORD
  5
1000011C
102
{ACAD_REACTORS
330
1000011A
102
}
330
1000011A
100
AcDbXrecord
1000
KFbB
  0
XRECORD
  5
1000011F
102
{ACAD_REACTORS
330
1000011E
102
}
330
1000011E
100
AcDbXrecord
1000
LFlZE
  0
XRECORD
  5
10000120
102
{ACAD_REACTORS
330
1000011E
102
}
330
1000011E
100
AcDbXrecord
1000
KFbB
  0
XRECORD
  5
10000125
102
{ACAD_REACTORS
330
10000122
102
}
330
10000122
100
AcDbXrecord
 40
0.472
  0
XRECORD
  5
10000123
102
{ACAD_REACTORS
330
10000122
102
}
330
10000122
100
AcDbXrecord
1000
LFVZE
  0
XRECORD
  5
10000124
102
{ACAD_REACTORS
330
10000122
102
}
330
10000122
100
AcDbXrecord
1000
LFqnB
  0
XRECORD
  5
10000126
102
{ACAD_REACTORS
330
10000122
102
}
330
10000122
100
AcDbXrecord
1000
KFbB
  0
XRECORD
  5
1000012B
102
{ACAD_REACTORS
330
10000128
102
}
330
10000128
100
AcDbXrecord
 40
9.4492
  0
XRECORD
  5
10000129
102
{ACAD_REACTORS
330
10000128
102
}
330
10000128
100
AcDbXrecord
1000
LFxiE
  0
XRECORD
  5
1000012A
102
{ACAD_REACTORS
330
10000128
102
}
330
10000128
100
AcDbXrecord
1000
LFqnB
  0
XRECORD
  5
1000012C
102
{ACAD_REACTORS
330
10000128
102
}
330
10000128
100
AcDbXrecord
1000
KFbB
  0
XRECORD
  5
10000131
102
{ACAD_REACTORS
330
1000012E
102
}
330
1000012E
100
AcDbXrecord
 40
0.472
  0
XRECORD
  5
1000012F
102
{ACAD_REACTORS
330
1000012E
102
}
330
1000012E
100
AcDbXrecord
1000
LFBZE
  0
XRECORD
  5
10000130
102
{ACAD_REACTORS
330
1000012E
102
}
330
1000012E
100
AcDbXrecord
1000
LFqnB
  0
XRECORD
  5
10000132
102
{ACAD_REACTORS
330
1000012E
102
}
330
1000012E
100
AcDbXrecord
1000
KFbB
  0
XRECORD
  5
10000135
102
{ACAD_REACTORS
330
10000134
102
}
330
10000134
100
AcDbXrecord
1000
LFRZE
  0
XRECORD
  5
10000136
102
{ACAD_REACTORS
330
10000134
102
}
330
10000134
100
AcDbXrecord
1000
KFbB
  0
XRECORD
  5
10000139
102
{ACAD_REACTORS
330
10000138
102
}
330
10000138
100
AcDbXrecord
1000
LFRfE
  0
XRECORD
  5
1000013A
102
{ACAD_REACTORS
330
10000138
102
}
330
10000138
100
AcDbXrecord
1000
KFbB
  0
XRECORD
  5
1000013F
102
{ACAD_REACTORS
330
1000013C
102
}
330
1000013C
100
AcDbXrecord
 40
15.0
  0
XRECORD
  5
1000013D
102
{ACAD_REACTORS
330
1000013C
102
}
330
1000013C
100
AcDbXrecord
1000
LFFfE
  0
XRECORD
  5
1000013E
102
{ACAD_REACTORS
330
1000013C
102
}
330
1000013C
100
AcDbXrecord
1000
LFqnB
  0
XRECORD
  5
10000140
102
{ACAD_REACTORS
330
1000013C
102
}
330
1000013C
100
AcDbXrecord
1000
KFbB
  0
XRECORD
  5
10000143
102
{ACAD_REACTORS
330
10000142
102
}
330
10000142
100
AcDbXrecord
1000
LF5eE
  0
XRECORD
  5
10000144
102
{ACAD_REACTORS
330
10000142
102
}
330
10000142
100
AcDbXrecord
1000
KFbB
  0
XRECORD
  5
10000147
102
{ACAD_REACTORS
330
10000146
102
}
330
10000146
100
AcDbXrecord
1000
LFtYE
  0
XRECORD
  5
10000148
102
{ACAD_REACTORS
330
10000146
102
}
330
10000146
100
AcDbXrecord
1000
KFbB
  0
XRECORD
  5
1000014D
102
{ACAD_REACTORS
330
1000014A
102
}
330
1000014A
100
AcDbXrecord
 40
0.472
  0
XRECORD
  5
1000014B
102
{ACAD_REACTORS
330
1000014A
102
}
330
1000014A
100
AcDbXrecord
1000
LFdYE
  0
XRECORD
  5
1000014C
102
{ACAD_REACTORS
330
1000014A
102
}
330
1000014A
100
AcDbXrecord
1000
LFqnB
  0
XRECORD
  5
1000014E
102
{ACAD_REACTORS
330
1000014A
102
}
330
1000014A
100
AcDbXrecord
1000
KFbB
  0
XRECORD
  5
10000153
102
{ACAD_REACTORS
330
10000150
102
}
330
10000150
100
AcDbXrecord
 40
9.4492
  0
XRECORD
  5
10000151
102
{ACAD_REACTORS
330
10000150
102
}
330
10000150
100
AcDbXrecord
1000
LF1iE
  0
XRECORD
  5
10000152
102
{ACAD_REACTORS
330
10000150
102
}
330
10000150
100
AcDbXrecord
1000
LFqnB
  0
XRECORD
  5
10000154
102
{ACAD_REACTORS
330
10000150
102
}
330
10000150
100
AcDbXrecord
1000
KFbB
  0
XRECORD
  5
10000159
102
{ACAD_REACTORS
330
10000156
102
}
330
10000156
100
AcDbXrecord
 40
0.472
  0
XRECORD
  5
10000157
102
{ACAD_REACTORS
330
10000156
102
}
330
10000156
100
AcDbXrecord
1000
LFJYE
  0
XRECORD
  5
10000158
102
{ACAD_REACTORS
330
10000156
102
}
330
10000156
100
AcDbXrecord
1000
LFqnB
  0
XRECORD
  5
1000015A
102
{ACAD_REACTORS
330
10000156
102
}
330
10000156
100
AcDbXrecord
1000
KFbB
  0
XRECORD
  5
1000015D
102
{ACAD_REACTORS
330
1000015C
102
}
330
1000015C
100
AcDbXrecord
1000
LFZYE
  0
XRECORD
  5
1000015E
102
{ACAD_REACTORS
330
1000015C
102
}
330
1000015C
100
AcDbXrecord
1000
KFbB
  0
XRECORD
  5
10000161
102
{ACAD_REACTORS
330
10000160
102
}
330
10000160
100
AcDbXrecord
1000
LFxeE
  0
XRECORD
  5
10000162
102
{ACAD_REACTORS
330
10000160
102
}
330
10000160
100
AcDbXrecord
1000
KFbB
  0
XRECORD
  5
10000167
102
{ACAD_REACTORS
330
10000164
102
}
330
10000164
100
AcDbXrecord
 40
15.0
  0
XRECORD
  5
10000165
102
{ACAD_REACTORS
330
10000164
102
}
330
10000164
100
AcDbXrecord
1000
LFleE
  0
XRECORD
  5
10000166
102
{ACAD_REACTORS
330
10000164
102
}
330
10000164
100
AcDbXrecord
1000
LFqnB
  0
XRECORD
  5
10000168
102
{ACAD_REACTORS
330
10000164
102
}
330
10000164
100
AcDbXrecord
1000
KFbB
  0
XRECORD
  5
1000016B
102
{ACAD_REACTORS
330
1000016A
102
}
330
1000016A
100
AcDbXrecord
1000
LFZeE
  0
XRECORD
  5
1000016C
102
{ACAD_REACTORS
330
1000016A
102
}
330
1000016A
100
AcDbXrecord
1000
KFbB
  0
XRECORD
  5
1000016F
102
{ACAD_REACTORS
330
1000016E
102
}
330
1000016E
100
AcDbXrecord
1000
LF1XE
  0
XRECORD
  5
10000170
102
{ACAD_REACTORS
330
1000016E
102
}
330
1000016E
100
AcDbXrecord
1000
KFbB
  0
XRECORD
  5
10000175
102
{ACAD_REACTORS
330
10000172
102
}
330
10000172
100
AcDbXrecord
 40
0.472
  0
XRECORD
  5
10000173
102
{ACAD_REACTORS
330
10000172
102
}
330
10000172
100
AcDbXrecord
1000
LFlXE
  0
XRECORD
  5
10000174
102
{ACAD_REACTORS
330
10000172
102
}
330
10000172
100
AcDbXrecord
1000
LFqnB
  0
XRECORD
  5
10000176
102
{ACAD_REACTORS
330
10000172
102
}
330
10000172
100
AcDbXrecord
1000
KFbB
  0
XRECORD
  5
1000017B
102
{ACAD_REACTORS
330
10000178
102
}
330
10000178
100
AcDbXrecord
 40
9.4492
  0
XRECORD
  5
10000179
102
{ACAD_REACTORS
330
10000178
102
}
330
10000178
100
AcDbXrecord
1000
LF5iE
  0
XRECORD
  5
1000017A
102
{ACAD_REACTORS
330
10000178
102
}
330
10000178
100
AcDbXrecord
1000
LFqnB
  0
XRECORD
  5
1000017C
102
{ACAD_REACTORS
330
10000178
102
}
330
10000178
100
AcDbXrecord
1000
KFbB
  0
XRECORD
  5
10000181
102
{ACAD_REACTORS
330
1000017E
102
}
330
1000017E
100
AcDbXrecord
 40
0.472
  0
XRECORD
  5
1000017F
102
{ACAD_REACTORS
330
1000017E
102
}
330
1000017E
100
AcDbXrecord
1000
LFRXE
  0
XRECORD
  5
10000180
102
{ACAD_REACTORS
330
1000017E
102
}
330
1000017E
100
AcDbXrecord
1000
LFqnB
  0
XRECORD
  5
10000182
102
{ACAD_REACTORS
330
1000017E
102
}
330
1000017E
100
AcDbXrecord
1000
KFbB
  0
XRECORD
  5
10000185
102
{ACAD_REACTORS
330
10000184
102
}
330
10000184
100
AcDbXrecord
1000
LFhXE
  0
XRECORD
  5
10000186
102
{ACAD_REACTORS
330
10000184
102
}
330
10000184
100
AcDbXrecord
1000
KFbB
  0
XRECORD
  5
10000189
102
{ACAD_REACTORS
330
10000188
102
}
330
10000188
100
AcDbXrecord
1000
LFReE
  0
XRECORD
  5
1000018A
102
{ACAD_REACTORS
330
10000188
102
}
330
10000188
100
AcDbXrecord
1000
KFbB
  0
XRECORD
  5
1000018F
102
{ACAD_REACTORS
330
1000018C
102
}
330
1000018C
100
AcDbXrecord
 40
15.0
  0
XRECORD
  5
1000018D
102
{ACAD_REACTORS
330
1000018C
102
}
330
1000018C
100
AcDbXrecord
1000
LFFeE
  0
XRECORD
  5
1000018E
102
{ACAD_REACTORS
330
1000018C
102
}
330
1000018C
100
AcDbXrecord
1000
LFqnB
  0
XRECORD
  5
10000190
102
{ACAD_REACTORS
330
1000018C
102
}
330
1000018C
100
AcDbXrecord
1000
KFbB
  0
XRECORD
  5
10000193
102
{ACAD_REACTORS
330
10000192
102
}
330
10000192
100
AcDbXrecord
1000
LF5dE
  0
XRECORD
  5
10000194
102
{ACAD_REACTORS
330
10000192
102
}
330
10000192
100
AcDbXrecord
1000
KFbB
  0
XRECORD
  5
10000197
102
{ACAD_REACTORS
330
10000196
102
}
330
10000196
100
AcDbXrecord
1000
LF9WE
  0
XRECORD
  5
10000198
102
{ACAD_REACTORS
330
10000196
102
}
330
10000196
100
AcDbXrecord
1000
KFbB
  0
XRECORD
  5
1000019D
102
{ACAD_REACTORS
330
1000019A
102
}
330
1000019A
100
AcDbXrecord
 40
0.472
  0
XRECORD
  5
1000019B
102
{ACAD_REACTORS
330
1000019A
102
}
330
1000019A
100
AcDbXrecord
1000
LFtWE
  0
XRECORD
  5
1000019C
102
{ACAD_REACTORS
330
1000019A
102
}
330
1000019A
100
AcDbXrecord
1000
LFqnB
  0
XRECORD
  5
1000019E
102
{ACAD_REACTORS
330
1000019A
102
}
330
1000019A
100
AcDbXrecord
1000
KFbB
  0
XRECORD
  5
100001A3
102
{ACAD_REACTORS
330
100001A0
102
}
330
100001A0
100
AcDbXrecord
 40
9.4492
  0
XRECORD
  5
100001A1
102
{ACAD_REACTORS
330
100001A0
102
}
330
100001A0
100
AcDbXrecord
1000
LF9iE
  0
XRECORD
  5
100001A2
102
{ACAD_REACTORS
330
100001A0
102
}
330
100001A0
100
AcDbXrecord
1000
LFqnB
  0
XRECORD
  5
100001A4
102
{ACAD_REACTORS
330
100001A0
102
}
330
100001A0
100
AcDbXrecord
1000
KFbB
  0
XRECORD
  5
100001A9
102
{ACAD_REACTORS
330
100001A6
102
}
330
100001A6
100
AcDbXrecord
 40
0.472
  0
XRECORD
  5
100001A7
102
{ACAD_REACTORS
330
100001A6
102
}
330
100001A6
100
AcDbXrecord
1000
LFZWE
  0
XRECORD
  5
100001A8
102
{ACAD_REACTORS
330
100001A6
102
}
330
100001A6
100
AcDbXrecord
1000
LFqnB
  0
XRECORD
  5
100001AA
102
{ACAD_REACTORS
330
100001A6
102
}
330
100001A6
100
AcDbXrecord
1000
KFbB
  0
XRECORD
  5
100001AD
102
{ACAD_REACTORS
330
100001AC
102
}
330
100001AC
100
AcDbXrecord
1000
LFpWE
  0
XRECORD
  5
100001AE
102
{ACAD_REACTORS
330
100001AC
102
}
330
100001AC
100
AcDbXrecord
1000
KFbB
  0
XRECORD
  5
100001B1
102
{ACAD_REACTORS
330
100001B0
102
}
330
100001B0
100
AcDbXrecord
1000
LFxdE
  0
XRECORD
  5
100001B2
102
{ACAD_REACTORS
330
100001B0
102
}
330
100001B0
100
AcDbXrecord
1000
KFbB
  0
XRECORD
  5
100001B7
102
{ACAD_REACTORS
330
100001B4
102
}
330
100001B4
100
AcDbXrecord
 40
15.0
  0
XRECORD
  5
100001B5
102
{ACAD_REACTORS
330
100001B4
102
}
330
100001B4
100
AcDbXrecord
1000
LFldE
  0
XRECORD
  5
100001B6
102
{ACAD_REACTORS
330
100001B4
102
}
330
100001B4
100
AcDbXrecord
1000
LFqnB
  0
XRECORD
  5
100001B8
102
{ACAD_REACTORS
330
100001B4
102
}
330
100001B4
100
AcDbXrecord
1000
KFbB
  0
XRECORD
  5
100001BB
102
{ACAD_REACTORS
330
100001BA
102
}
330
100001BA
100
AcDbXrecord
1000
LFZdE
  0
XRECORD
  5
100001BC
102
{ACAD_REACTORS
330
100001BA
102
}
330
100001BA
100
AcDbXrecord
1000
KFbB
  0
XRECORD
  5
100001BF
102
{ACAD_REACTORS
330
100001BE
102
}
330
100001BE
100
AcDbXrecord
1000
LFFWE
  0
XRECORD
  5
100001C0
102
{ACAD_REACTORS
330
100001BE
102
}
330
100001BE
100
AcDbXrecord
1000
KFbB
  0
XRECORD
  5
100001C5
102
{ACAD_REACTORS
330
100001C2
102
}
330
100001C2
100
AcDbXrecord
 40
0.472
  0
XRECORD
  5
100001C3
102
{ACAD_REACTORS
330
100001C2
102
}
330
100001C2
100
AcDbXrecord
1000
LF1VE
  0
XRECORD
  5
100001C4
102
{ACAD_REACTORS
330
100001C2
102
}
330
100001C2
100
AcDbXrecord
1000
LFqnB
  0
XRECORD
  5
100001C6
102
{ACAD_REACTORS
330
100001C2
102
}
330
100001C2
100
AcDbXrecord
1000
KFbB
  0
XRECORD
  5
100001CB
102
{ACAD_REACTORS
330
100001C8
102
}
330
100001C8
100
AcDbXrecord
 40
9.4492
  0
XRECORD
  5
100001C9
102
{ACAD_REACTORS
330
100001C8
102
}
330
100001C8
100
AcDbXrecord
1000
LFBjE
  0
XRECORD
  5
100001CA
102
{ACAD_REACTORS
330
100001C8
102
}
330
100001C8
100
AcDbXrecord
1000
LFqnB
  0
XRECORD
  5
100001CC
102
{ACAD_REACTORS
330
100001C8
102
}
330
100001C8
100
AcDbXrecord
1000
KFbB
  0
XRECORD
  5
100001D1
102
{ACAD_REACTORS
330
100001CE
102
}
330
100001CE
100
AcDbXrecord
 40
0.472
  0
XRECORD
  5
100001CF
102
{ACAD_REACTORS
330
100001CE
102
}
330
100001CE
100
AcDbXrecord
1000
LFhVE
  0
XRECORD
  5
100001D0
102
{ACAD_REACTORS
330
100001CE
102
}
330
100001CE
100
AcDbXrecord
1000
LFqnB
  0
XRECORD
  5
100001D2
102
{ACAD_REACTORS
330
100001CE
102
}
330
100001CE
100
AcDbXrecord
1000
KFbB
  0
XRECORD
  5
100001D5
102
{ACAD_REACTORS
330
100001D4
102
}
330
100001D4
100
AcDbXrecord
1000
LFxVE
  0
XRECORD
  5
100001D6
102
{ACAD_REACTORS
330
100001D4
102
}
330
100001D4
100
AcDbXrecord
1000
KFbB
  0
XRECORD
  5
100001D9
102
{ACAD_REACTORS
330
100001D8
102
}
330
100001D8
100
AcDbXrecord
1000
LFRdE
  0
XRECORD
  5
100001DA
102
{ACAD_REACTORS
330
100001D8
102
}
330
100001D8
100
AcDbXrecord
1000
KFbB
  0
XRECORD
  5
100001DF
102
{ACAD_REACTORS
330
100001DC
102
}
330
100001DC
100
AcDbXrecord
 40
15.0
  0
XRECORD
  5
100001DD
102
{ACAD_REACTORS
330
100001DC
102
}
330
100001DC
100
AcDbXrecord
1000
LFFdE
  0
XRECORD
  5
100001DE
102
{ACAD_REACTORS
330
100001DC
102
}
330
100001DC
100
AcDbXrecord
1000
LFqnB
  0
XRECORD
  5
100001E0
102
{ACAD_REACTORS
330
100001DC
102
}
330
100001DC
100
AcDbXrecord
1000
KFbB
  0
XRECORD
  5
100001E3
102
{ACAD_REACTORS
330
100001E2
102
}
330
100001E2
100
AcDbXrecord
1000
LF5cE
  0
XRECORD
  5
100001E4
102
{ACAD_REACTORS
330
100001E2
102
}
330
100001E2
100
AcDbXrecord
1000
KFbB
  0
XRECORD
  5
100001E7
102
{ACAD_REACTORS
330
100001E6
102
}
330
100001E6
100
AcDbXrecord
1000
LFNVE
  0
XRECORD
  5
100001E8
102
{ACAD_REACTORS
330
100001E6
102
}
330
100001E6
100
AcDbXrecord
1000
KFbB
  0
XRECORD
  5
100001ED
102
{ACAD_REACTORS
330
100001EA
102
}
330
100001EA
100
AcDbXrecord
 40
0.472
  0
XRECORD
  5
100001EB
102
{ACAD_REACTORS
330
100001EA
102
}
330
100001EA
100
AcDbXrecord
1000
LF9UE
  0
XRECORD
  5
100001EC
102
{ACAD_REACTORS
330
100001EA
102
}
330
100001EA
100
AcDbXrecord
1000
LFqnB
  0
XRECORD
  5
100001EE
102
{ACAD_REACTORS
330
100001EA
102
}
330
100001EA
100
AcDbXrecord
1000
KFbB
  0
MATERIAL
  5
45
102
{ACAD_REACTORS
330
43
102
}
102
{ACAD_XDICTIONARY
360
10000224
102
}
330
43
100
AcDbMaterial
  1
BYBLOCK
  0
MATERIAL
  5
44
102
{ACAD_REACTORS
330
43
102
}
102
{ACAD_XDICTIONARY
360
10000222
102
}
330
43
100
AcDbMaterial
  1
BYLAYER
  0
MATERIAL
  5
46
102
{ACAD_REACTORS
330
43
102
}
102
{ACAD_XDICTIONARY
360
10000226
102
}
330
43
100
AcDbMaterial
  1
GLOBAL
  0
ACAD_PROXY_OBJECT
  5
5C
102
{ACAD_REACTORS
330
5B
102
}
330
5B
100
AcDbProxyObject
 90
      499
 91
      505
 93
      610
310
40901902A4063FBFFFFFE0000000000000020400000000000020404214DD185B99185C990000000000000104090141901A00000000000004100000000000000041025764000000000000039000
340
14
340
0
340
11
340
0
 94
        0
1001
ACAD_MLEADERVER
1070
     2
  0
MLINESTYLE
  5
18
102
{ACAD_REACTORS
330
17
102
}
330
17
100
AcDbMlineStyle
  2
Standard
 70
     0
  3

 62
   256
 51
90.0
 52
90.0
 71
     2
 49
0.5
 62
   256
  6
BYLAYER
 49
-0.5
 62
   256
  6
BYLAYER
  0
ACAD_PROXY_OBJECT
  5
10000023
102
{ACAD_REACTORS
330
47
102
}
330
47
100
AcDbProxyObject
 90
      499
 91
      503
 93
      121
310
9053130303A310000000000001650100
  0
ACAD_PROXY_OBJECT
  5
1000001D
102
{ACAD_REACTORS
330
47
102
}
330
47
100
AcDbProxyObject
 90
      499
 91
      503
 93
      113
310
90431303A310000000000000910100
  0
ACAD_PROXY_OBJECT
  5
1000001E
102
{ACAD_REACTORS
330
47
102
}
330
47
100
AcDbProxyObject
 90
      499
 91
      503
 93
      113
310
90431323A310000000000000A10100
  0
ACAD_PROXY_OBJECT
  5
1000001F
102
{ACAD_REACTORS
330
47
102
}
330
47
100
AcDbProxyObject
 90
      499
 91
      503
 93
      113
310
90431363A310000000000000C10100
  0
ACAD_PROXY_OBJECT
  5
10000006
102
{ACAD_REACTORS
330
47
102
}
330
47
100
AcDbProxyObject
 90
      499
 91
      503
 93
       41
310
903313A31500
  0
ACAD_PROXY_OBJECT
  5
1000000D
102
{ACAD_REACTORS
330
47
102
}
330
47
100
AcDbProxyObject
 90
      499
 91
      503
 93
      113
310
904313A31304000000000000244000
  0
ACAD_PROXY_OBJECT
  5
10000016
102
{ACAD_REACTORS
330
47
102
}
330
47
100
AcDbProxyObject
 90
      499
 91
      503
 93
      121
310
905313A3130304000000000000594000
  0
ACAD_PROXY_OBJECT
  5
1000000E
102
{ACAD_REACTORS
330
47
102
}
330
47
100
AcDbProxyObject
 90
      499
 91
      503
 93
      113
310
904313A31324000000000000284000
  0
ACAD_PROXY_OBJECT
  5
1000000F
102
{ACAD_REACTORS
330
47
102
}
330
47
100
AcDbProxyObject
 90
      499
 91
      503
 93
      113
310
904313A31364000000000000304000
  0
ACAD_PROXY_OBJECT
  5
10000007
102
{ACAD_REACTORS
330
47
102
}
330
47
100
AcDbProxyObject
 90
      499
 91
      503
 93
      105
310
903313A324000000000000004000
  0
ACAD_PROXY_OBJECT
  5
10000010
102
{ACAD_REACTORS
330
47
102
}
330
47
100
AcDbProxyObject
 90
      499
 91
      503
 93
      113
310
904313A32304000000000000344000
  0
ACAD_PROXY_OBJECT
  5
10000011
102
{ACAD_REACTORS
330
47
102
}
330
47
100
AcDbProxyObject
 90
      499
 91
      503
 93
      113
310
904313A32354000000000000394000
  0
ACAD_PROXY_OBJECT
  5
10000008
102
{ACAD_REACTORS
330
47
102
}
330
47
100
AcDbProxyObject
 90
      499
 91
      503
 93
      105
310
903313A334000000000000084000
  0
ACAD_PROXY_OBJECT
  5
10000012
102
{ACAD_REACTORS
330
47
102
}
330
47
100
AcDbProxyObject
 90
      499
 91
      503
 93
      113
310
904313A33324000000000000404000
  0
ACAD_PROXY_OBJECT
  5
10000009
102
{ACAD_REACTORS
330
47
102
}
330
47
100
AcDbProxyObject
 90
      499
 91
      503
 93
      105
310
903313A344000000000000104000
  0
ACAD_PROXY_OBJECT
  5
10000013
102
{ACAD_REACTORS
330
47
102
}
330
47
100
AcDbProxyObject
 90
      499
 91
      503
 93
      113
310
904313A34304000000000000444000
  0
ACAD_PROXY_OBJECT
  5
1000000A
102
{ACAD_REACTORS
330
47
102
}
330
47
100
AcDbProxyObject
 90
      499
 91
      503
 93
      105
310
903313A354000000000000144000
  0
ACAD_PROXY_OBJECT
  5
10000014
102
{ACAD_REACTORS
330
47
102
}
330
47
100
AcDbProxyObject
 90
      499
 91
      503
 93
      113
310
904313A35304000000000000494000
  0
ACAD_PROXY_OBJECT
  5
1000000B
102
{ACAD_REACTORS
330
47
102
}
330
47
100
AcDbProxyObject
 90
      499
 91
      503
 93
      105
310
903313A364000000000000184000
  0
ACAD_PROXY_OBJECT
  5
1000000C
102
{ACAD_REACTORS
330
47
102
}
330
47
100
AcDbProxyObject
 90
      499
 91
      503
 93
      105
310
903313A384000000000000204000
  0
ACAD_PROXY_OBJECT
  5
10000015
102
{ACAD_REACTORS
330
47
102
}
330
47
100
AcDbProxyObject
 90
      499
 91
      503
 93
      113
310
904313A38304000000000000544000
  0
ACAD_PROXY_OBJECT
  5
10000020
102
{ACAD_REACTORS
330
47
102
}
330
47
100
AcDbProxyObject
 90
      499
 91
      503
 93
      113
310
90432303A310000000000000D10100
  0
ACAD_PROXY_OBJECT
  5
10000017
102
{ACAD_REACTORS
330
47
102
}
330
47
100
AcDbProxyObject
 90
      499
 91
      503
 93
      105
310
903323A310000000000000010100
  0
ACAD_PROXY_OBJECT
  5
10000021
102
{ACAD_REACTORS
330
47
102
}
330
47
100
AcDbProxyObject
 90
      499
 91
      503
 93
      113
310
90433323A310000000000001010100
  0
ACAD_PROXY_OBJECT
  5
10000018
102
{ACAD_REACTORS
330
47
102
}
330
47
100
AcDbProxyObject
 90
      499
 91
      503
 93
      105
310
903333A310000000000000210100
  0
ACAD_PROXY_OBJECT
  5
10000019
102
{ACAD_REACTORS
330
47
102
}
330
47
100
AcDbProxyObject
 90
      499
 91
      503
 93
      105
310
903343A310000000000000410100
  0
ACAD_PROXY_OBJECT
  5
10000022
102
{ACAD_REACTORS
330
47
102
}
330
47
100
AcDbProxyObject
 90
      499
 91
      503
 93
      113
310
90435303A310000000000001250100
  0
ACAD_PROXY_OBJECT
  5
1000001A
102
{ACAD_REACTORS
330
47
102
}
330
47
100
AcDbProxyObject
 90
      499
 91
      503
 93
      105
310
903353A310000000000000510100
  0
ACAD_PROXY_OBJECT
  5
1000001B
102
{ACAD_REACTORS
330
47
102
}
330
47
100
AcDbProxyObject
 90
      499
 91
      503
 93
      105
310
903363A310000000000000610100
  0
ACAD_PROXY_OBJECT
  5
1000001C
102
{ACAD_REACTORS
330
47
102
}
330
47
100
AcDbProxyObject
 90
      499
 91
      503
 93
      105
310
903383A310000000000000810100
  0
ACAD_PROXY_OBJECT
  5
2F
102
{ACAD_REACTORS
330
2A
102
}
330
2A
100
AcDbProxyObject
 90
      499
 91
      501
 93
      436
310
42CC9915DA5C99599C985B595049028333333333333E33F0000000000000F90107901411070040501600405405064090741402480A0340
1001
ACAD
1000
AcDbSavedByObjectVersion
1070
     0
  0
ACAD_PROXY_OBJECT
  5
32
102
{ACAD_REACTORS
330
2A
102
}
330
2A
100
AcDbProxyObject
 90
      499
 91
      501
 93
      388
310
4150985CDA58D07406404333333333333E33F0000000000000F90107A41107004050150841D405064090741402480A0350
1001
ACAD
1000
AcDbSavedByObjectVersion
1070
     0
  0
ACAD_PROXY_OBJECT
  5
36
102
{ACAD_REACTORS
330
2A
102
}
330
2A
100
AcDbProxyObject
 90
      499
 91
      501
 93
      428
310
42109C9A59DA1D195B90C409028333333333333E33F0000000000000F9010790141107004050150841D405064090741402480A029950
1001
ACAD
1000
AcDbSavedByObjectVersion
1070
     0
  0
ACAD_PROXY_OBJECT
  5
3A
102
{ACAD_REACTORS
330
2A
102
}
330
2A
100
AcDbProxyObject
 90
      499
 91
      501
 93
      452
310
42D0DBDB1BDC90DA185B99D95104090240C333333333333E33F0000000000000F90108901411070040501508421405064090741402480A0350
1001
ACAD
1000
AcDbSavedByObjectVersion
1070
     0
  0
ACAD_PROXY_OBJECT
  5
34
102
{ACAD_REACTORS
330
2A
102
}
330
2A
100
AcDbProxyObject
 90
      499
 91
      501
 93
      500
310
4290DBDB98D95C1D1D585B10940D028333333333333E33F0000000000000F90107902409070040501000000000018199010841D405064090740C02480A0340
1001
ACAD
1000
AcDbSavedByObjectVersion
1070
     0
  0
ACAD_PROXY_OBJECT
  5
35
102
{ACAD_REACTORS
330
2A
102
}
330
2A
100
AcDbProxyObject
 90
      499
 91
      501
 93
      412
310
40D11A5B50B409028333333333333E33F0000000000000F9010790141107004050150841D405064090741402480A02677FFFFFD0
1001
ACAD
1000
AcDbSavedByObjectVersion
1070
     0
  0
ACAD_PROXY_OBJECT
  5
3D
102
{ACAD_REACTORS
330
2A
102
}
330
2A
100
AcDbProxyObject
 90
      499
 91
      501
 93
      452
310
43115919D950DBDB1BDC93D999916409028333333333333E33F0000000000000F9010790141107004050150841D405064090741402480A0350
1001
ACAD
1000
AcDbSavedByObjectVersion
1070
     0
  0
ACAD_PROXY_OBJECT
  5
39
102
{ACAD_REACTORS
330
2A
102
}
330
2A
100
AcDbProxyObject
 90
      499
 91
      501
 93
      444
310
42D19858D95C185D1D195C9B90F409028333333333333E33F0000000000000F9010790141107004050150841D405064090741402480A0350
1001
ACAD
1000
AcDbSavedByObjectVersion
1070
     0
  0
ACAD_PROXY_OBJECT
  5
2B
102
{ACAD_REACTORS
330
2A
102
}
330
2A
100
AcDbProxyObject
 90
      499
 91
      501
 93
      380
310
41119B185D240901404333333333333E33F0000000000000F9010740A907004050150841D405064090741402480A1B50
1001
ACAD
1000
AcDbSavedByObjectVersion
1070
     0
  0
ACAD_PROXY_OBJECT
  5
2C
102
{ACAD_REACTORS
330
2A
102
}
330
2A
100
AcDbProxyObject
 90
      499
 91
      501
 93
      468
310
43519B185D15DA5D1A115919D95CD0140901404333333333333E33F0000000000000F90107409019070040501600405405064090741402480A1B50
1001
ACAD
1000
AcDbSavedByObjectVersion
1070
     0
  0
ACAD_PROXY_OBJECT
  5
2D
102
{ACAD_REACTORS
330
2A
102
}
330
2A
100
AcDbProxyObject
 90
      499
 91
      501
 93
      404
310
41D1DBDD5C985D5910240902404333333333333E33F0000000000000F9010740A9070040501641D405064090741402480A1B50
1001
ACAD
1000
AcDbSavedByObjectVersion
1070
     0
  0
ACAD_PROXY_OBJECT
  5
2E
102
{ACAD_REACTORS
330
2A
102
}
330
2A
100
AcDbProxyObject
 90
      499
 91
      501
 93
      492
310
4411DBDD5C985D5915DA5D1A115919D95CD0340902404333333333333E33F0000000000000F90107409019070040501600405405064090741402480A1B50
1001
ACAD
1000
AcDbSavedByObjectVersion
1070
     0
  0
ACAD_PROXY_OBJECT
  5
31
102
{ACAD_REACTORS
330
2A
102
}
330
2A
100
AcDbProxyObject
 90
      499
 91
      501
 93
      476
310
41921A5919195B90640502408333333333333E33F0000000000000F901079024090700405020000000000001110200405405064090740C02480A0340
1001
ACAD
1000
AcDbSavedByObjectVersion
1070
     0
  0
ACAD_PROXY_OBJECT
  5
3B
102
{ACAD_REACTORS
330
2A
102
}
330
2A
100
AcDbProxyObject
 90
      499
 91
      501
 93
      428
310
42529A5D1D195C93D999914409028333333333333E33F0000000000000F9010790141107004050150A41D405064090741402480A0350
1001
ACAD
1000
AcDbSavedByObjectVersion
1070
     0
  0
ACAD_PROXY_OBJECT
  5
38
102
{ACAD_REACTORS
330
2A
102
}
330
2A
100
AcDbProxyObject
 90
      499
 91
      501
 93
      444
310
42D31A5B995C185D1D195C9B90E409028333333333333E33F0000000000000F9010790141107004050750841D405064090741402483A0350
1001
ACAD
1000
AcDbSavedByObjectVersion
1070
     0
  0
ACAD_PROXY_OBJECT
  5
3C
102
{ACAD_REACTORS
330
2A
102
}
330
2A
100
AcDbProxyObject
 90
      499
 91
      501
 93
      444
310
42D3DD995C9A185B99D3D999915409028333333333333E33F0000000000000F9010790141107004050150941D405064090741402480A0350
1001
ACAD
1000
AcDbSavedByObjectVersion
1070
     0
  0
ACAD_PROXY_OBJECT
  5
33
102
{ACAD_REACTORS
330
2A
102
}
330
2A
100
AcDbProxyObject
 90
      499
 91
      501
 93
      428
310
425499585B1A5CDD1A58D08409038333333333333E33F0000000000000F9010740A907004050150800405405064090740C02480A1B40
1001
ACAD
1000
AcDbSavedByObjectVersion
1070
     0
  0
ACAD_PROXY_OBJECT
  5
42
102
{ACAD_REACTORS
330
2A
102
}
330
2A
100
AcDbProxyObject
 90
      499
 91
      501
 93
      420
310
4194DA1859195911B40902404333333333333E33F0000000000000F9010740A41107004050150800405405064090840C02480A0B40
1001
ACAD
1000
AcDbSavedByObjectVersion
1070
     0
  0
ACAD_PROXY_OBJECT
  5
41
102
{ACAD_REACTORS
330
2A
102
}
330
2A
100
AcDbProxyObject
 90
      499
 91
      501
 93
      516
310
4454DA18591959081DDA5D1A08195919D95CD1A40902404333333333333E33F0000000000000F901074090142907004050250800405405064090740C02480A0B40
1001
ACAD
1000
AcDbSavedByObjectVersion
1070
     0
  0
ACAD_PROXY_OBJECT
  5
3E
102
{ACAD_REACTORS
330
2A
102
}
330
2A
100
AcDbProxyObject
 90
      499
 91
      501
 93
      532
310
4394DA1859195CC81BD98811DC985E5174090240C333333333333E33F0000000000000F901079024090741D01000000000000111010841D405064090740C02480A0340
1001
ACAD
1000
AcDbSavedByObjectVersion
1070
     0
  0
ACAD_PROXY_OBJECT
  5
3F
102
{ACAD_REACTORS
330
2A
102
}
330
2A
100
AcDbProxyObject
 90
      499
 91
      501
 93
      476
310
41D4DAD95D18DA1E51840502408333333333333E33F0000000000000F901079024090741D01000000000000111010B41D405064090741802480A0340
1001
ACAD
1000
AcDbSavedByObjectVersion
1070
     0
  0
ACAD_PROXY_OBJECT
  5
37
102
{ACAD_REACTORS
330
2A
102
}
330
2A
100
AcDbProxyObject
 90
      499
 91
      501
 93
      412
310
41D51A1A58DAD95B90D409028333333333333E33F0000000000000F9010790141107004050150C41D405064090741402480A0350
1001
ACAD
1000
AcDbSavedByObjectVersion
1070
     0
  0
ACAD_PROXY_OBJECT
  5
30
102
{ACAD_REACTORS
330
2A
102
}
330
2A
100
AcDbProxyObject
 90
      499
 91
      501
 93
      420
310
4255DA5C99599C985B595059028333333333333E33F0000000000000F90107901411070040501600405405064090740C02480A0340
1001
ACAD
1000
AcDbSavedByObjectVersion
1070
     0
  0
ACAD_PROXY_OBJECT
  5
40
102
{ACAD_REACTORS
330
2A
102
}
330
2A
100
AcDbProxyObject
 90
      499
 91
      501
 93
      404
310
41560B54985E51940902404000000000000E03F0000000000000F9010740501907004050150841D405064090740C02480A1B40
1001
ACAD
1000
AcDbSavedByObjectVersion
1070
     0
  0
XRECORD
  5
100001FB
102
{ACAD_REACTORS
330
100001F1
102
}
330
100001F1
100
AcDbXrecord
340
0
  0
XRECORD
  5
100001FA
102
{ACAD_REACTORS
330
100001F1
102
}
330
100001F1
100
AcDbXrecord
 90
        0
  0
XRECORD
  5
10000211
102
{ACAD_REACTORS
330
100001F1
102
}
330
100001F1
100
AcDbXrecord
1000
DSTYLE
1002
{
1070
   340
340
11
1002
}
  0
XRECORD
  5
100001FC
102
{ACAD_REACTORS
330
100001F1
102
}
330
100001F1
100
AcDbXrecord
  1
{71327837-7470-7565-36b9-747079326573}
  0
XRECORD
  5
100001F4
102
{ACAD_REACTORS
330
100001F1
102
}
330
100001F1
100
AcDbXrecord
  1

  0
XRECORD
  5
100001F9
102
{ACAD_REACTORS
330
100001F1
102
}
330
100001F1
100
AcDbXrecord
 90
        4
  0
XRECORD
  5
100001F6
102
{ACAD_REACTORS
330
100001F1
102
}
330
100001F1
100
AcDbXrecord
340
1A
  0
XRECORD
  5
100001F8
102
{ACAD_REACTORS
330
100001F1
102
}
330
100001F1
100
AcDbXrecord
 90
    10781
  0
XRECORD
  5
100001F7
102
{ACAD_REACTORS
330
100001F1
102
}
330
100001F1
100
AcDbXrecord
340
19
  0
XRECORD
  5
100001FE
102
{ACAD_REACTORS
330
100001F1
102
}
330
100001F1
100
AcDbXrecord
 40
0.0
  0
XRECORD
  5
10000201
102
{ACAD_REACTORS
330
100001F1
102
}
330
100001F1
100
AcDbXrecord
340
0
  0
XRECORD
  5
10000207
102
{ACAD_REACTORS
330
100001F1
102
}
330
100001F1
100
AcDbXrecord
 10
0.0
 20
0.0
 30
0.0
  0
XRECORD
  5
10000203
102
{ACAD_REACTORS
330
100001F1
102
}
330
100001F1
100
AcDbXrecord
 10
0.0
 20
0.0
 30
0.0
  0
XRECORD
  5
10000206
102
{ACAD_REACTORS
330
100001F1
102
}
330
100001F1
100
AcDbXrecord
 10
0.0
 20
0.0
 30
0.0
  0
XRECORD
  5
10000204
102
{ACAD_REACTORS
330
100001F1
102
}
330
100001F1
100
AcDbXrecord
 10
0.0
 20
0.0
 30
0.0
  0
XRECORD
  5
10000205
102
{ACAD_REACTORS
330
100001F1
102
}
330
100001F1
100
AcDbXrecord
 10
0.0
 20
0.0
 30
0.0
  0
XRECORD
  5
10000202
102
{ACAD_REACTORS
330
100001F1
102
}
330
100001F1
100
AcDbXrecord
 10
0.0
 20
0.0
 30
0.0
  0
XRECORD
  5
100001FF
102
{ACAD_REACTORS
330
100001F1
102
}
330
100001F1
100
AcDbXrecord
340
0
  0
XRECORD
  5
10000200
102
{ACAD_REACTORS
330
100001F1
102
}
330
100001F1
100
AcDbXrecord
 70
     0
  0
XRECORD
  5
100001F5
102
{ACAD_REACTORS
330
100001F1
102
}
330
100001F1
100
AcDbXrecord
  1

  0
XRECORD
  5
100001F2
102
{ACAD_REACTORS
330
100001F1
102
}
330
100001F1
100
AcDbXrecord
 90
        1
  0
XRECORD
  5
100001F3
102
{ACAD_REACTORS
330
100001F1
102
}
330
100001F1
100
AcDbXrecord
 90
       70
  0
XRECORD
  5
1000020A
102
{ACAD_REACTORS
330
100001F1
102
}
330
100001F1
100
AcDbXrecord
340
0
  0
XRECORD
  5
10000210
102
{ACAD_REACTORS
330
100001F1
102
}
330
100001F1
100
AcDbXrecord
 10
0.0
 20
0.0
 30
0.0
  0
XRECORD
  5
1000020C
102
{ACAD_REACTORS
330
100001F1
102
}
330
100001F1
100
AcDbXrecord
 10
0.0
 20
0.0
 30
0.0
  0
XRECORD
  5
1000020F
102
{ACAD_REACTORS
330
100001F1
102
}
330
100001F1
100
AcDbXrecord
 10
0.0
 20
0.0
 30
0.0
  0
XRECORD
  5
1000020D
102
{ACAD_REACTORS
330
100001F1
102
}
330
100001F1
100
AcDbXrecord
 10
0.0
 20
0.0
 30
0.0
  0
XRECORD
  5
1000020E
102
{ACAD_REACTORS
330
100001F1
102
}
330
100001F1
100
AcDbXrecord
 10
0.0
 20
0.0
 30
0.0
  0
XRECORD
  5
1000020B
102
{ACAD_REACTORS
330
100001F1
102
}
330
100001F1
100
AcDbXrecord
 10
0.0
 20
0.0
 30
0.0
  0
XRECORD
  5
10000208
102
{ACAD_REACTORS
330
100001F1
102
}
330
100001F1
100
AcDbXrecord
340
0
  0
XRECORD
  5
10000209
102
{ACAD_REACTORS
330
100001F1
102
}
330
100001F1
100
AcDbXrecord
 70
     0
  0
XRECORD
  5
100001FD
102
{ACAD_REACTORS
330
100001F1
102
}
330
100001F1
100
AcDbXrecord
  1
{FAEB1C32-E019-11D5-929B-00C0DF256EC4}
  0
DICTIONARYVAR
  5
10000220
102
{ACAD_REACTORS
330
10000212
102
}
330
10000212
100
DictionaryVariables
280
     0
  1
1:1
  0
DICTIONARYVAR
  5
10000219
102
{ACAD_REACTORS
330
10000212
102
}
330
10000212
100
DictionaryVariables
280
     0
  1
3.500000
  0
DICTIONARYVAR
  5
1000021A
102
{ACAD_REACTORS
330
10000212
102
}
330
10000212
100
DictionaryVariables
280
     0
  1
acadiso.lin
  0
DICTIONARYVAR
  5
10000214
102
{ACAD_REACTORS
330
10000212
102
}
330
10000212
100
DictionaryVariables
280
     0
  1
Standard
  0
DICTIONARYVAR
  5
10000213
102
{ACAD_REACTORS
330
10000212
102
}
330
10000212
100
DictionaryVariables
280
     0
  1
Standard
  0
DICTIONARYVAR
  5
1000021B
102
{ACAD_REACTORS
330
10000212
102
}
330
10000212
100
DictionaryVariables
280
     0
  1
2
  0
DICTIONARYVAR
  5
1000021C
102
{ACAD_REACTORS
330
10000212
102
}
330
10000212
100
DictionaryVariables
280
     0
  1
1
  0
DICTIONARYVAR
  5
10000221
102
{ACAD_REACTORS
330
10000212
102
}
330
10000212
100
DictionaryVariables
280
     0
  1
1
  0
DICTIONARYVAR
  5
10000216
102
{ACAD_REACTORS
330
10000212
102
}
330
10000212
100
DictionaryVariables
280
     0
  1
80.000000
  0
DICTIONARYVAR
  5
10000215
102
{ACAD_REACTORS
330
10000212
102
}
330
10000212
100
DictionaryVariables
280
     0
  1
5.000000
  0
XRECORD
  5
10000003
102
{ACAD_REACTORS
330
10000001
102
}
330
10000001
100
AcDbXrecord
 70
     4
  0
XRECORD
  5
10000002
102
{ACAD_REACTORS
330
10000001
102
}
330
10000001
100
AcDbXrecord
1040
89.0
  0
ACAD_PROXY_OBJECT
  5
10000005
102
{ACAD_REACTORS
330
10000001
102
}
330
10000001
100
AcDbProxyObject
 90
      499
 91
      509
 93
       34
310
40C8804040
  0
DICTIONARY
  5
10000224
330
45
100
AcDbDictionary
280
     1
  3
ACAD_XREC_ROUNDTRIP
360
10000225
  0
DICTIONARY
  5
10000222
330
44
100
AcDbDictionary
280
     1
  3
ACAD_XREC_ROUNDTRIP
360
10000223
  0
DICTIONARY
  5
10000226
330
46
100
AcDbDictionary
280
     1
  3
ACAD_XREC_ROUNDTRIP
360
10000227
  0
XRECORD
  5
10000225
102
{ACAD_REACTORS
330
10000224
102
}
330
10000224
100
AcDbXrecord
102
MATERIAL
148
0.0
149
0.0
149
0.0
 93
        0
 94
      127
282
     0
 72
     1
 77
     1
171
     1
175
     1
179
     1
273
     0
  0
XRECORD
  5
10000223
102
{ACAD_REACTORS
330
10000222
102
}
330
10000222
100
AcDbXrecord
102
MATERIAL
148
0.0
149
0.0
149
0.0
 93
        0
 94
      127
282
     0
 72
     1
 77
     1
171
     1
175
     1
179
     1
273
     0
  0
XRECORD
  5
10000227
102
{ACAD_REACTORS
330
10000226
102
}
330
10000226
100
AcDbXrecord
102
MATERIAL
148
0.0
149
0.0
149
0.0
 93
        0
 94
      127
282
     0
 72
     1
 77
     1
171
     1
175
     1
179
     1
273
     0
  0
ENDSEC
  0
EOF
